» » »

Rata Blanca, Otono Medieval Tabs (ver.1)

Artists:  A B C D E F G H I J K L M N O P Q R S T U V W X Y Z # 

Otono Medieval Tabs (ver.1)

Rata Blanca Tabs
 Rating:
4/5 (4 votes)
Otono Medieval lessons Tabs too difficult? Try these video lessons and learn fast
1
                
OTOÑO MEDIEVAL
As recorded by Rata Blanca
(From the 1990 Album MAGOS ESPADAS Y ROSAS)

        

Music by Walter Giardino

Gtr I (Eb Ab Db Gb Bb Eb) - 'Untitled'
Gtr II (Eb Ab Db Gb Bb Eb) - 'Untitled'

 Theme 1
  Slower Q=80
             Am               Dm             Am             Dm
 3/4
       Gtr I
  H    E E    E E E E E E      E E E E E E    E E E E E E    E E E E E E
|------5-7-|-^8-------7-5-||---------------|--------------|--------------|
|----------|------5-------||o-^6-------5---|-^5-----------|------6-------|
|----------|----5---5-----||-------7-----7-|----------7-5-|-^7-------5-4-|
|----------|-^7-----------||-----7---7-----|------7-------|----7---7-----|
|----------|--------------||o-^5-----------|----7---7-----|-^5-----------|
|----------|--------------||---------------|-^5-----------|--------------|


                                              1.
  F              E              Am
   E E E E E E    E E E E E E    E E E E E E   E E E E E E    E E E E E E
|--------------|--------------|--------------|---------5-7-|-^8-------7-5---||
|-^1-------0---|------------0-|--------------|-------------|-^5---5--------o||
|------------2-|-^1-------2---|-^2---2---2---|-----2-------|-^5-5---5-------||
|------3-------|------2-------|----2---2---2-|---2---2-----|-^7-------------||
|----3---3-----|----2---2-----|-^0-----------|-0-----------|---------------o||
|-^1-----------|-^0-----------|--------------|-------------|----------------||


                Theme 2
  2.
                 Dm             Am             Dm             Am
  E E E E E E     E E E E E E    E E E E E E    E E E E E E    E E E  E  E E
|-------------||------0---1---|-^0-----------|------1-------|------0----------|
|---------0-1-||-^3-----3---3-|-^1-------3-1-|-^3-------1-0-|-^1---------0-1--|
|-----2-------||----2---------|-^2---2-------|----2---2-----|--------(2)------|
|---2---2-----||-^0-----------|-^2-2---2-----|-^0-----------|----2------------|
|-0-----------||--------------|-^0-----------|--------------|-^0--------------|
|-------------||--------------|--------------|--------------|-----------------|


  Dm             F    C  Dm    E                           Am
   E E E E E E    E E Q   Q    E E E E Q    E E E E E E     E E E E E E
|------0---1---|-^1---3--/5--|-4-------5--|---------5-7-||-^8-------7-5--||
|-^3-----3---3-|-^1---5--/6--|-----5------|-5-----------||------5--------||
|----2---------|-^2----------|---4---4----|-----4-------||----5---5------||
|-^0-----------|-^3-3--------|------------|---2---2-----||---------------||
|--------------|-------------|------------|-------------||-^0------------||
|--------------|-------------|-0----------|-0-----------||---------------||


   E E E E E E    E E E E E E    E E E E E E    E E E E E E    E E E E E E
|--------------|--------------|--------------|--------------|---------------|
|-^6-------5---|-^5-----------|------6-------|-^1-------0---|----------1-0--|
|------7-----7-|----------7-5-|-^7-------5-4-|------------2-|-^1------------|
|----7---7-----|------7-------|----7---7-----|------3-------|------2--------|
|-^5-----------|----7---7-----|-^5-----------|----3---3-----|----2---2------|
|--------------|-^5-----------|--------------|-^1-----------|-^0------------|


                               Interlude
  Am                                                    E
  Gtr II
   W             W               E   E   E   E  E   E   E  E  E   E  E   E
|--------------|------------||---8--10--12---8-10--12-|-7--8-10---7--8--10--|
|--------------|------------||o-10--12--13--10-12--13-|-9-10-12---9-10--12--|
|--------------|------------||------------------------|---------------------|
|--------------|------------||------------------------|---------------------|
|--------------|------------||o-----------------------|---------------------|
|--------------|------------||------------------------|---------------------|
|
| Gtr I
|  E E E E E E   E E E E Q       E   E  +E   E +E   E   E  E +E   E +E   E
|--------------|------------||------------------------|---------------------|
|--------------|------------||o-----------------------|---------------------|
|-^2---2---2---|-----2---2--||-----/(9)-(9)-/9-(9)--9-|---/7-(7)-/7-(7)--7--|
|----2---2---2-|---2---2----||------------------------|---------------------|
|-^0-----------|-0----------||o--0--------------------|---------------------|
|--------------|------------||------------------------|-0-------------------|


                                                            1.
  Am                    E                     Dm             G
   E  E  E   E  E   E   E  E  E   E  E   E     Q   Q   Q      Q    Q   Q
|--8-10-12---8-10--12-|-7--8-10---7--8--10-||--8---7---5---|--3----1---1----|
|-10-12-13--10-12--13-|-9-10-12---9-10--12-||-10---8---6---|--3----1---3----|
|---------------------|--------------------||--------------|----------------|
|---------------------|--------------------||--------------|----------------|
|---------------------|--------------------||--------------|----------------|
|---------------------|--------------------||--------------|----------------|
|
|  E  E +E   E +E   E   E  E +E   E +E   E     E E E E E E    E  E E E E E
|---------------------|--------------------||--1---0-------|----------------|
|---------------------|--------------------||----------3---|--0----1---3----|
|----/5-(5)-/5-(5)--5-|---/4-(4)-/4-(4)--4-||----2---2---2-|-----0---0---0--|
|---------------------|--------------------||--0-----------|----------------|
|--0------------------|--------------------||--------------|-------0---2----|
|---------------------|-0------------------||--------------|-(3)------------|


  C             E
  Q   Q   Q      Q     Q    Q
|-0---1---0---|--4-----8---10---||
|-1---3---1---|--5----10---12--o||
|-------------|-----------------||
|-------------|-----------------||
|-------------|----------------o||
|-------------|-----------------||
|
| E E E E E E    E  E  E E  Q
|-------------|--------0----0---||
|-1---3---1---|----------------o||
|---0---0---0-|--1--------------||
|-------------|-----2----2------||
|-3-----------|----------------o||
|-------------|-(0)-------------||


 2.
  E     Am  E    Am
   Q    Q   Q    Q   Q   Q      Q   Q    E  E
|--7----5---4--|-5-------7---|--8-------10-12--||
|--9----5---5--|-5-------9---|-10-------12-13--||
|--------------|-------------|-----------------||
|--------------|-------------|-----------------||
|--------------|-------------|-----------------||
|--------------|-------------|-----------------||
|
|  E  E E E Q    E E E E E E    E E E E  E  E
|--------------|-------------|-----------------||
|--0----1---0--|-------------|-----------0--1--||
|--1----2-1-1--|-2---2---2---|------2----------||
|-----2--------|---2---2---2-|----2---2--------||
|--------------|-0-----------|--3--------------||
|-(0)----------|-------------|-----------------||


 Theme 3
  Dm               Am
   Q   Q    E  E    S  S  +E      Q    E  E
|-13--------8-10-|-12-12-(12)---------10-12-|
|-15-------10-12-|-13-13-(13)---------12-13-|
|----------------|--------------------------|
|----------------|--------------------------|
|----------------|--------------------------|
|----------------|--------------------------|
|
|  E E E E  E  E    E      S   S  E E  E  E
|------0----1----|-^0-----------------------|
|--3-----3-----3-|-^1------------------3--1-|
|----2-----------|-^2-----(2)-----2---------|
|--0-------------|-^2---------------2-------|
|----------------|-^0---------(0)-----------|
|----------------|--------------------------|


  Dm               Am               Dm
   Q   Q    E  E    Q   Q    E  E    Q   Q    E  E
|-13--------8-10-|-12-------10-12-|-13-------13-15--|
|-15-------10-12-|-13-------12-13-|-15-------15-17--|
|----------------|----------------|-----------------|
|----------------|----------------|-----------------|
|----------------|----------------|-----------------|
|----------------|----------------|-----------------|
|
|  E E E E  E  E    E E E E  E  E    E E E E  E  e
|------1---------|------0---------|------0----1-----|
|--3--------1--0-|-----------0--1-|--3-----3-----3--|
|----2---2-------|--2-------------|----2------------|
|--0-------------|----2---2-------|--0--------------|
|----------------|--0-------------|-----------------|
|----------------|----------------|-----------------|


  F     C  Dm      E
    Q   Q   E  E   Q   Q    Q      Q   Q   Q
|-/17------10--8-|-7--------8---|-10-----------||
|-/18------12-10-|-9-------10---|-12-----------||
|----------------|--------------|--------------||
|----------------|--------------|--------------||
|----------------|--------------|--------------||
|----------------|--------------|--------------||
|
|   E E Q   Q      E E E E +Q      E E E E E E
|-^-1---3--/5----|--------------|----------5-7-||
|-^-1---5--/6----|-5---5--------|--5-----------||
|-^-2------------|---4---4-(4)--|------4-------||
|-^-3-3----------|-2------------|----2---2-----||
|----------------|--------------|--------------||
|----------------|--------------|--0-----------||


 Outro
  Am              Dm
   TP               TP   TP   TP
   H.               Q    Q    Q
|--8------------|-/17---15---13----|
|-10------------|-/18---17---15----|
|---------------|------------------|
|---------------|------------------|
|---------------|------------------|
|---------------|------------------|
|
|  E  E E E E E     E E  E E  E E
|-^8--------7-5-|------------------|
|-------5-------|-^-6---------5----|
|-----5---5-----|--------7------7--|
|---------------|-----7----7-------|
|-^0------------|-^-5--------------|
|---------------|------------------|


  Am              Dm                F
   TP               TP   TP   TP     TP
   H.               Q    Q    Q      H.
|-12------------|-/17---13---10---|--8------------|
|-13------------|-/18---15---12---|-10------------|
|---------------|-----------------|---------------|
|---------------|-----------------|---------------|
|---------------|-----------------|---------------|
|---------------|-----------------|---------------|
|
|  E  E E E E E     E E  E E  E E    E  E E E E E
|---------------|-----------------|---------------|
|-^5------------|--------6--------|-^1--------0---|
|-----------7-5-|-^-7---------5-4-|-------------2-|
|-------7-------|-----7----7------|-------3-------|
|-----7---7-----|-^-5-------------|-----3---3-----|
|-^5------------|-----------------|-^1------------|


                 H.=H
  E              Am
                 >
  TP             TP
  H.             H.                W
|-7------------|-5--------------|--------*|
|-9------------|-5--------------|--------*|
|--------------|----------------|--------*|
|--------------|----------------|--------*|
|--------------|----------------|--------*|
|--------------|----------------|--------*|
|
| E  E E E E E   E   E  E E E E    H.
|--------------|--------------0-|-^5-----*|
|----------1-0-|------------1---|-^5-----*|
|-1------------|----------2-----|-^5-----*|
|------2-------|--------2-------|-^7-----*|
|----2---2-----|----(3)---------|-^7-----*|
|-0------------|-5--------------|-^5-----*|



Duration Legend
---------------
W - whole; H - half; Q - quarter; E - 8th; S - 16th; T - 32nd; X - 64th; a - acciaccatura
+ - note tied to previous; . - note dotted; .. - note double dotted
Uncapitalized letters represent notes that are staccato (1/2 duration)
Irregular groupings are notated above the duration line
Duration letters will always appear directly above the note/fret number it represents the
duration for.  Duration letters with no fret number below them represent rests.  Multi-
bar rests are notated in the form Wxn, where n is the number of bars to rest for.  Low
melody durations appear below the staff

Tablature Legend
----------------
 h   - hammer-on
 p   - pull-off
 b   - bend
 pb  - pre-bend
 r   - bend release (if no number after the r, then release immediately)
 /\  - slide into or out of (from/to "nowhere")
 s   - legato slide
 S   - shift slide
 - natural harmonic
[n]  - artificial harmonic
n(n) - tapped harmonic
 ~   - vibrato
 tr  - trill
 T   - tap
 TP  - trem. picking
 PM  - palm muting
\n/  - tremolo bar dip; n = amount to dip
 \n  - tremolo bar down
 n/  - tremolo bar up
/n\  - tremolo bar inverted dip
 =   - hold bend; also acts as connecting device for hammers/pulls
 <> - volume swell (louder/softer)
 x   - on rhythm slash represents muted slash
 o   - on rhythm slash represents single note slash

Misc Legend
-----------
 |  - bar
||  - double bar
||o - repeat start
o|| - repeat end
*|  - double bar (ending)
 :  - bar (freetime)
 $  - Segno
 &  - Coda
Tempo markers -  = BPM(8/16=s8/s16), where s8 = swing 8ths, s16 = swing 16ths
            
Submit corrections

comments powered by Disqus
↑ Back to top | Rata Blanca Tabs for Otono Medieval. Lyrics for acoustic guitar and electric guitar. 1 Tablatures and chords are parodies/interpretations of the original songs. You may use it for private study, scholarship, research or language learning purposes only