>
 >
Noche Sin Sueos

Noche Sin Sueos Guitar Tabs

Rata Blanca - Noche Sin Sueos chords, tabs, tablatures, lyrics

Guitar lessons | Add/correct | Request | Top 50 tabs Artists:  A B C D E F G H I J K L M N O P Q R S T U V W X Y Z 0-9

Noche Sin Sueos Guitar Tabs – Rata Blanca

CD, Sheet music, Poster

Do you like Noche Sin Sueos? Share with your friends now
Tabs
Espero que les guste la cancion ;D
Liliana te AmoOo!!
Amur Corazon!
=*
Dudas Msj me :P




RIFF1
D|------------|
A|----5-------|
E|-5h7-7vvv---|

RIFF2
D|-----------------------|
A|--4/3-5-7vv------------|
E|-----------------------|

RIFF3
G|-4-2-------------------------------|
D|----4-2----------------------------|
A|-------5-4-2-4---------------------|


Intro
Bm-A-D-A-Bm)*2

   Bm          A-D
   La noche està
              A       Bm-A-D-A
   murmurando con su brisa
   Bm        A-D
   habla de vos,
                 A     Bm-A-D-D4-D5
   me recuerdan tus caricias

   Em                              Bm-A-RIFF1
   Son las noches que no paso a tu lado
   Em
   que comprendo nena cuanto hay
   Em  Bm  C    D
   en nuestro amor
        C           Bm
   que busca ser sagrado


Otravez como el intro!
e|-------------------------9b-9-7-5h7p5--------------------|
B|------2h3s5-5s7-5s3s2----------------8h10p8/7------------|
G|-2s4-----------------2s4---------------------9b-9-7-6----|
D|-----------------------------------------------------7/9-|
A|---------------------------------------------------------|
E|---------------------------------------------------------|

   Quiero beber
   de tu esencia tan distinta
   y comprender
   lo que no tiene la mía.

   Rompere la noche gritando tu nombre
   hasta que mi voz te llegará
   al corazòn
            D
   Una canciòn
       G              RIFF2
   te busca apesar de todo
           D
   una cancion
       G                 A
   te grita con toda su voz
  Em                                  Bm-RIFF3
   que quizas no tengas un hombre perfecto
   Em
   y que solo te podrá brindar
  F#m Em  D   Em
   todo su amor
                   Bm
   o si quíeres su vida

2 SOLO
e|--------------------------9b-9-10p9p7-------------------------|
B|-0-5bv-5b-5p3-5b---------------------10-8-7-8p7-8s10b-10bvvv--|
G|----------------2h4p2-----------------------------------------|
D|---------------------0----------------------------------------|
A|----------------------4-2v------------------------------------|
E|--------------------------------------------------------------|

e|---12-12-9--------------------------------12b-12-10-12b-14-17-14-17-12-|v
B|-10-------10--10-------------------------------------------------------|
G|------------9b--9b-9bvvv-6-7-6-7s9-7-6-2s4-----------------------------|
D|-----------------------------------------------------------------------|
A|-----------------------------------------------------------------------|
E|-----------------------------------------------------------------------|
Se repite el intro!

3 SOLO
e|---------------------------------------------------|
B|-10bb-10-8-----------------------7-8-10------------|
G|----------9bb--7-9-9b-9p7-9bp7---------9bb---------|
D|--------------9---------------9vv------------------|
A|---------------------------------------------------|
E|---------------------------------------------------|

e|---12b-12-10p9--------12------------------------------|
B|-10-----------10s12-10--14-10s12-10vvv----------------|
G|--------------------------------------12h14p12p11-11--|b
D|------------------------------------------------------|
A|------------------------------------------------------|
E|------------------------------------------------------|

e|-------10----(10)----------------------------------|
B|-12-10b--10bb----10b-10----------------------------|
G|-----------------------12-12-11(b)-----------------|
D|---------------------------------------------------|
A|---------------------------------------------------|
E|---------------------------------------------------|

e|-----------------------------------------------------------------------|
B|----------------------------5-3p2-----5-3h5p3/2-3p2-------5-8-7vv------|
G|-6-7p6-4---------------(4)-4-----2s4-4-------------2s4-/7--------------|
D|--------2h4p2----------------------------------------------------------|
A|-------------4-2-------------------------------------------------------|
E|----------------5-3-2vv------------------------------------------------|

e|---------------9-10-10p9-14b-14b-14b-14b-12--14b---------|
B|-8p7-8s10-10s12----------------------------15---10-------|
G|---------------------------------------------------------|
D|---------------------------------------------------------|
A|---------------------------------------------------------|
E|---------------------------------------------------------|

e|--------5-7vvv---10vvv-------------------------------------|
B|-8b*-8-7------10b------------------------------------------|
G|----------------------(7p6-7-11)*2---10--------------------|
D|----------------------(9p7-9-12)  -9b--9p7-9b-9b-9p7-9b----|
A|-----------------------------------------------------------|
E|-----------------------------------------------------------|


e|-17b-15-14vv-17b-15-14---------9b-9-7----------------------|
B|----------------------17-15bf15------10bvvv-8b*-7vvv-------|
G|-----------------------------------------------------------|
D|-----------------------------------------------------------|
A|-----------------------------------------------------------|
E|-----------------------------------------------------------|

e|----17---17---17---17-17-19-17vv-15h17p15p14----------------|
B|-17b--17b--17b--17b-------------------------17b-14h15p14-12-|
G|------------------------------------------------------------|
D|------------------------------------------------------------|
A|------------------------------------------------------------|
E|------------------------------------------------------------|





Comments


Popular Rata Blanca tabs & chords
Angel Tabs
Dias Duros Tabs
El Beso De La Bruja Tabs
Ella Tabs
En Nombre De Dios? Tabs
La Danza Del Fuego Tabs
La Llave De La Puerta Secreta 1 Tabs
Madre Tierra Intro Tabs
Preludio Obsesivo Tabs
Amo Del Camino Ukulele


Song lyrics



↑ Back to top | Tablatures and chords are parodies/interpretations of the original songs. You may use it for private study, scholarship, research or language learning purposes only
© 2014 AZChords.com Contact us | Privacy policy | DMCA | Add/correct tabs | Request tabs | Top 50 tabs