» » »

Mujer Amante Tabs (ver.6)

Artists:  A B C D E F G H I J K L M N O P Q R S T U V W X Y Z # 

Mujer Amante Tabs (ver.6)

Rata Blanca
Rating:
0/5 (0 votes)

Hard to play? Try these video lessons and learn fast.
                Una version detallada de este tema.
De Sebastian Strongoli


Mujer Amante


Intro
e-----------------------------------------------------|
B----------5----5----5----5----5----5----5----5-------|
G-----------------------------------------------------|
D----7-------7----7----7----7----7----7----7----7---7-|
A----7----------------------------------------------7-|
E----5----------------------------------------------5-|

e------------------------------------------------------|
B--5-6-8-6-5---6-5h6p5-----5-------5-------------------|
G------------7---------7-5---7-5-4---7-5-4-7-5-4-----4-|
D------------------------------------------------7-5---|
A------------------------------------------------------|
E------------------------------------------------------|


Guitarra 1
e---------|
B---------|
G---------|
D--7-7-7--|
A--7-7-7--|
E--5-5-5--|

Guitarra 2
e---------|
B--5-5-5--|
G---------|
D---------|
A---------|
E---------|


e-----------------------|
B------5-6-5h6p5--------|
G--5-7-----------7-5-4--|
D-----------------------|
A-----------------------|
E-----------------------|

e-----------------------|
B-----------------------|
G--4-5-7-5-4-5-4h5p4----|
D--------------------7--|
A-----------------------|
E-----------------------|

e-----------------------|
B-----------------------|
G-----------------------|
D--5--------------------|
A----8-7h8p7------------|
E-----------------------|

e-----------------------|
B-----------------------|
G-----------------------|
D------5----------------|
A--7-8---8-7-5----------|
E-----------------------|

e-----------------------|
B-----------------------|
G-----------------------|
D-----------------------|
A--3-2-3/5--------------|
E----------3~~~~--------|

          ---Comienzo del violin con la guitarra---

Base

Am - G - Am - Am x2
C  - G - Am - Am x2

Violin
e-----5-5-5-5-7-8-10--------5-7-7--5-5-|
B--5-----------------8-8-8-------------|
G--------------------------------------|
D--------------------------------------|
A--------------------------------------|
E--------------------------------------|

Guitarra
e----5-7-8-7-5h7p5---5-----------------|
B--5---------------8---8-6-4-----------|
G--------------------------------------|
D--------------------------------------|
A--------------------------------------|
E--------------------------------------|

Violin
e-----5-5-5-5-7-8-10--------8-7-5------|
B--5-----------------8-8-8-------------|
G--------------------------------------|
D--------------------------------------|
A--------------------------------------|
E--------------------------------------|

Guitarra
e----------------------------------------|
B------5---8-5h6p5---6-5---5-------------|
G--5-7---7---------7-----7---7-5-4-5-7-5-|
D----------------------------------------|
A----------------------------------------|
E----------------------------------------|

Violin
e--12-12-12-13-12-15-13-12------------------------------|
B--------------------------15-13-12-12-13-15-15--13-13--|
G-------------------------------------------------------|
D-------------------------------------------------------|
A-------------------------------------------------------|
E-------------------------------------------------------|

Guitarra
e--12-10-8-------10-8h10p8---------------|
B--13-12-10----------------10------------|
G----------------------------------------|
D----------------------------------------|
A----------------------------------------|
E----------------------------------------|

Violin
e--12-12-12-13-12-15-13-12------------------------------|
B--------------------------15-13-12-12------------------|
G--------------------------------------14-12-14---------|
D-------------------------------------------------------|
A-------------------------------------------------------|
E-------------------------------------------------------|

Guitarra
e-----------------|
B-----------------|
G----4-5-7-5-7/9--|
D--7--------------|
A-----------------|
E-----------------|


                   -----------------------


Am                          C           G                G
Siento el calor, de toda tu piel, en mi cuerpo otra vez

Am              F         C      G                     G
estrella fugaz, enciende mi ser, misteriosa mujer

      Riff 1                   Riff 2
        F            F         Am    Am
con tu amor sensual, cuanto me das

      Riff 3     Riff 4
G                F    C
Haz que mi sueño sea, una verdad

      Riff 1      Riff 2
F                 Am
Dame tu alma hoy, haz el ritual

      Riff1       Riff 2      Riff 5
G                 F      E
Llevame al mundo, donde, pueda soñar.


Riff 1                 |  Riff 2
                       |
e--5--5--5--5--5--5----|---5--5--5--5--5--5----|
B---6--6--6--6--6--6---|----5--5--5--5--5--5---|
G----5--5-----5--5-----|-----------------------|
D----------------------|------7--7-----7--7----|
A----------------------|-----------------------|
E----------------------|-----------------------|

Riff 3      |  Riff 4
            |
e--7--7-----|--10-10-------------------12----12-13-|
B--8--8-----|--10-10-------------------------------|
G--7--7-----|--10-10-------------------------------|
D-----------|--------------------------------------|
A-----------|--------------------------------------|
E-----------|--------------------------------------|

Riff 5

e-----------|
B--3-3/5-5--|
G-----------|
D--3-3/5-5--|
A-----------|
E-----------|

Am     C                G                 Am
Uhhhh. Debo saber si en verdad, en algun lado estas.

Am            C       G      Am
Voy a buscar, una señal, una cancion   A--0-2-3-2-0--

Am     C                G                 Am
Uhhhh. Debo saber si en verdad, en algun lado estas.

Am            C           G     Am  Em  C
Solo el amor, que tu me das, me ayudara...

                   -----------------------


Base

Am - G - Am - Am x2
C  - G - Am - Am x2

Violin
e-----5-5-5-5-7-8-10--------5-7-7--5-5-|
B--5-----------------8-8-8-------------|
G--------------------------------------|
D--------------------------------------|
A--------------------------------------|
E--------------------------------------|

Guitarra
e--------------------------------------|
B--------------------------------------|
G---------5-7/9------------------------|
D-----5-7------------------------------|
A-5-7----------------------------------|
E--------------------------------------|

Violin
e-----5-5-5-5-7-8-10--------8-7-5------|
B--5-----------------8-8-8-------------|
G--------------------------------------|
D--------------------------------------|
A--------------------------------------|
E--------------------------------------|

Guitarra
e----------10----10-10h12----------------|
B-10-13-12----13----------10-------------|
G----------------------------------------|
D----------------------------------------|
A----------------------------------------|
E----------------------------------------|

Violin
e--12-12-12-13-12-15-13-12------------------------------|
B--------------------------15-13-12-12-13-15-15--13-13--|
G-------------------------------------------------------|
D-------------------------------------------------------|
A-------------------------------------------------------|
E-------------------------------------------------------|

Guitarra
e----------------------------------------|
B--5--7-6p5------------------------------|
G-------------5--7-6p5-------------------|
D----------------------------------------|
A----------------------------------------|
E----------------------------------------|

Violin
e--12-12-12-13-12-15-13-12------------------------------|
B--------------------------15-13-12-12------------------|
G--------------------------------------14-12-14---------|
D-------------------------------------------------------|
A-------------------------------------------------------|
E-------------------------------------------------------|

Guitarra
e-----------------|
B-----------------|
G-----------------|
D-----------------|
A-----------------|
E-----------------|


-----------------------


Am                        C           G           G
Al amanecer, tu imagen se va, misteriosa mujer
Am               F         C      G              G
dejaste en mi, lujuria total, hermosa y sensual

      Riff 1                Riff 2
        F            F      Am    Am
corazon sin dios, dame un lugar

      Riff 3     Riff 4
G                F    C
en ese mundo, tibio, casi irreal

      Riff 1      Riff 2
F                  Am
debere buscar, una señal

     Riff1    Riff 2          Riff 5
G                F  E
y en aquel camino, por el que vas


Riff 1                 |  Riff 2
                       |
e--5--5--5--5--5--5----|---5--5--5--5--5--5----|
B---6--6--6--6--6--6---|----5--5--5--5--5--5---|
G----5--5-----5--5-----|-----------------------|
D----------------------|------7--7-----7--7----|
A----------------------|-----------------------|
E----------------------|-----------------------|

Riff 3      |  Riff 4
            |
e--7--7-----|--10-10-------------------12----12-13-|
B--8--8-----|--10-10-------------------------------|
G--7--7-----|--10-10-------------------------------|
D-----------|--------------------------------------|
A-----------|--------------------------------------|
E-----------|--------------------------------------|

Riff 5

e-----------|
B--3-3/5-5--|
G-----------|
D--3-3/5-5--|
A-----------|
E-----------|

Am     C                G                 Am
Uhhhh. Debo saber si en verdad, en algun lado estas.

Am            C       G      Am
Voy a buscar, una señal, una cancion   A--0-2-3-2-0--

Am     C                G                 Am
Uhhhh. Debo saber si en verdad, en algun lado estas.

Am            C           G     Am  Em  G
Solo el amor, que tu me das, me ayudara...

                 ---Solo---

e----5-7-8--8p7p5-7-------------------------------------------------|
B--5--------------------6-8-6p5---5-----------------------------5---|
G-------------------------------7----------------------0--5/7-5-----|
D--------------------------------------------------0-2------------7-|
A--------------------------------------------0-2-3------------------|
E-------------------------------------------------------------------|

e----------------------------------------------------------------------------|
B----------------------------------------------------------------------------|
G----4-5-5h7p5 5h7p5-5-4---4-5-7-5-4h5p4 4h5p4---4---------------------------|
D--7---------------------7---------------------7---7-5h7p5---5---------------|
A----------------------------------------------------------8---8-7-----------|
E----------------------------------------------------------------------8-7-5-|


--Base 2da Guitarra-------------------------------------------------
   Dm            Am                         G
--------------------------------------------------------------------

e--13----12-13---15-------------------12-13----12-13-12h13p12-13-12-|
B--15------------15----------12-13-15-------15----------------------|
G--14------------15-------14----------------------------------------|
D-------------------------------------------------------------------|
A-------------------------------------------------------------------|
E-------------------------------------------------------------------|


--Base 2da Guitarra--------------------------------------------------
              Am
---------------------------------------------------------------------

e------------------|
B-15-12-13-15-13---|
G------------------|
D------------------|
A------------------|
E------------------|


--Base 2da Guitarra------------------------------------------------
   Am                              Dm
-------------------------------------------------------------------

e--------------------------------10-8h10p8p7--10-8h10p8p7-10-7-----|
B--10h12p10----10--8h10p8----8-------------------------------------|
G-----------12------------10---------------------------------------|
D------------------------------------------------------------------|
A------------------------------------------------------------------|
E------------------------------------------------------------------|


--Base 2da Guitarra----------------------
                                     G
-----------------------------------------

e--8-7----7-8-10-8-7-8-10-8-10-12/15-15--|
B------10--------------------------------|
G----------------------------------------|
D----------------------------------------|
A----------------------------------------|
E----------------------------------------|


--Base 2da Guitarra---------------------
   G           A
----------------------------------------

e----------------------------------------|
B----------------------------------------|
G--15-13-13h15-12------13-15---13-12~~~~-|
D----------------------------------------|
A----------------------------------------|
E----------------------------------------|

A--2--3--5--5/7--|
E--0--1--3--3/5--|

                 ---Final del Solo---


F                                Am
Tu presencia marco en mi vida el amor, lo se
G          C                      E
es dificil pensar en vivir ya sin vos

e--12-------|
B--12---15--|
G--13-------|

Riff 1            Riff 1   e--6/8-6--5--
F                           Am
Corazon sin dios, dame un lugar

      Riff 3     Riff 4      Riff 5
G                F    E
en ese mundo, tibio, casi irreal


Am     C                G                 Am
Uhhhh. Debo saber si en verdad, en algun lado estas.

Am            C       G      Am
Voy a buscar, una señal, una cancion   A--0-2-3-2-0--

Am     C                G                 Am
Uhhhh. Debo saber si en verdad, en algun lado estas   A--3-2-0--

Am            C           G     Am
Solo el amor, que tu me das, me ayudara...


Base

Am - G - Am - Am     x2
C  - G - Am - Am     x1
C  - G - E - Am - Am x1
Violin
e-----5-5-5-5-7-8-10--------5-7-7--5-5-|
B--5-----------------8-8-8-------------|
G--------------------------------------|
D--------------------------------------|
A--------------------------------------|
E--------------------------------------|

Guitarra
e--------------------------------------|
B--------------------------------------|
G------------0-------------------------|
D--------0-2---3-2-0h2p0-3-2-----------|
A--0-2-3-------------------------------|
E--------------------------------------|

Violin
e-----5-5-5-5-7-8-10--------8-7-5------|
B--5-----------------8-8-8-------------|
G--------------------------------------|
D--------------------------------------|
A--------------------------------------|
E--------------------------------------|

Guitarra (uy uy uy iooo ooo)
e----------------------------------------|
B----------------------------------------|
G----------------------------------------|
D----------------------------------------|
A----------------------------------------|
E----------------------------------------|

Violin
e--12-12-12-13-12-15-13-12------------------------------|
B--------------------------15-13-12-12-13-15-15--13-13--|
G-------------------------------------------------------|
D-------------------------------------------------------|
A-------------------------------------------------------|
E-------------------------------------------------------|

Guitarra
e----5-7-8-7-5h7p5---5-----------------|
B--5---------------8---8-6-4-----------|
G--------------------------------------|
D--------------------------------------|
A--------------------------------------|
E--------------------------------------|

Violin
e--12-12-12-13-12-15-13-12------------------------------|
B--------------------------15-13-12-12------------------|
G--------------------------------------14-12-14---------|
D-------------------------------------------------------|
A-------------------------------------------------------|
E-------------------------------------------------------|

Guitarra
e--------------7h8p7p5------------------|
B----------5-6---------8-6-5/3----------|
G----4-5-7------------------------------|
D--7------------------------------------|
A--------------------------------3-2-0--|
E---------------------------------------|
            
Hard to play? Try these video lessons and learn fast. | Correct




comments powered by Disqus
↑ Back to top | Tablatures and chords are parodies/interpretations of the original songs. You may use it for private study, scholarship, research or language learning purposes only