» » »

Rata Blanca, Los Ojos Del Dragon Tabs (ver.1)

Artists:  A B C D E F G H I J K L M N O P Q R S T U V W X Y Z # 

Los Ojos Del Dragon Tabs (ver.1)

Rata Blanca Tabs
 Rating:
4/5 (4 votes)
Los Ojos Del Dragon lessons Tabs too difficult? Try these video lessons and learn fast
                
LOS OJOS DEL DRAGON
As recorded by Rata Blanca
(From the 1991 Album "GUERRERO DEL ARCO IRIS")

        

Words and Music by Walter Giardino & Adrián Barilari

Gtr I (E A D G B E) - 'Walter Giardino'
Gtr II (E A D G B E) - 'Dub 1'
Gtr III (E A D G B E) - 'Dub 2'

 Intro
  Heavy rock Q=120
  E5
 4/4
  Gtr I
                                            ~
  W          Q  Q  H      E E E Q  E. E.    W
|----------|------------|-----------------|------|
|----------|------------|-----------------|------|
|-9--------|------------|-----------------|------|
|-9--------|------------|-----------------|------|
|-7--------|-5--8--7----|----------3--5---|-7----|
|----------|------------|-5-4-5-7---------|------|
|
| Gtr II
| W          Q  Q  H      W                 W
|----------|------------|-----------------|------|
|----------|------------|-----------------|------|
|----------|------------|-----------------|------|
|-2--------|------------|-----------------|-7----|
|-2--------|------------|-----------------|-7----|
|-0--------|-5--1--0----|-----------------|-5----|


                              (E)
   ~~~
  +W           Q  Q  Q  Q     W          Q  Q  H
|------------|--------------|----------|------------|
|------------|--------------|----------|------------|
|------------|--------------|----------|------------|
|------------|--------------|----------|------------|
|-(7)--------|-5--3---------|-7--------|-5--8--7----|
|------------|-------7--5\--|-0--------|------------|
|
| +W           W              W          Q  Q  H
|------------|--------------|----------|------------|
|------------|--------------|----------|------------|
|------------|--------------|----------|------------|
|-(7)--------|--------------|-2--------|------------|
|-(7)--------|--------------|-2--------|------------|
|-(5)--------|--------------|-0--------|-5--1--0----|


                    G5             D5
                    Gtrs I, II
                    \1.5/
                    ~~~~~
  E E E Q  E.  E.   W              W          W
|-----------------|--------------|----------|------|
|-----------------|--------------|----------|------|
|-----------------|--------------|----------|------|
|-----------------|-5------------|-7--------|-7----|
|-----------------|-5------------|-5--------|-5----|
|-5-4-5-7--8--10--|-3------------|----------|------|


                    Pre-Verse
                     N.C.
  Gtr I              Gtrs I, II
       \3/
       ~~~~~~~~~~
  H    Q    +Q       S S S S S S S S S S S S S S S S
|-----------------||---------------------------------|
|-----------------||---------------------------------|
|-6----6----(6)\--||---------------------------------|
|-----------------||---------------------------------|
|-----------------||-------------2-2-4-2-----2-------|
|-----------------||-2-2-4-4-5-5---------5-4---5-4-2-|


  N.C.                    D5   N.C.
  S S S S S S S S S S S S Q    S S S S S S S S S S S S S S S S
|----------------------------|---------------------------------|
|----------------------------|---------------------------------|
|----------------------------|---------------------------------|
|-------------------------7--|---------------------------------|
|-------------2-2-4-2-----5--|-------------2-2-4-2-----2-------|
|-2-2-4-4-5-5---------5-4----|-2-2-4-4-5-5---------5-4---5-4-2-|
|
| Gtr III
| H               Q       Q    W
|----------------------------|---------------------------------|
|----------------------------|---------------------------------|
|-------------------------7--|---------------------------------|
|-------------------------7--|---------------------------------|
|-------------------------5--|---------------------------------|
|----------------------------|---------------------------------|


  N.C.                D5C#5  N.C.
  S S S S S S S S S S E Q    S S S S S S S S S S S S S S S S
|--------------------------|----------------------------------|
|--------------------------|----------------------------------|
|--------------------------|----------------------------------|
|---------------------7-6--|----------------------------------|
|-------------2-2-4-2-5-4--|-------------2-2-4-2-----2--------|
|-2-2-4-4-5-5--------------|-2-2-4-4-5-5---------5-4---5-4-2--|


  N.C.                    D5   N.C.
  S S S S S S S S S S S S Q    S S S S S S S S S S S S S S S S
|----------------------------|---------------------------------|
|----------------------------|---------------------------------|
|----------------------------|---------------------------------|
|-------------------------7--|---------------------------------|
|-------------2-2-4-2-----5--|-------------2-2-4-2-----2-------|
|-2-2-4-4-5-5---------5-4----|-2-2-4-4-5-5---------5-4---5-4-2-|


  N.C.                D5C#5  N.C.
  S S S S S S S S S S E Q    S S S S S S S S S S S S S S S S
|--------------------------|----------------------------------|
|--------------------------|----------------------------------|
|--------------------------|----------------------------------|
|---------------------7-6--|----------------------------------|
|---------------------5-4--|-------------2-2-4-2-----2--------|
|-2-2-4-4-5-5-7-7-9-7------|-2-2-4-4-5-5---------5-4---5-4-2--|


  N.C.                    D5   N.C.
  S S S S S S S S S S S S Q    S S S S S S S S S S S S S S S S
|----------------------------|---------------------------------|
|----------------------------|---------------------------------|
|----------------------------|---------------------------------|
|-------------------------7--|---------------------------------|
|-------------2-2-4-2-----5--|-------------2-2-4-2-----2-------|
|-2-2-4-4-5-5---------5-4----|-2-2-4-4-5-5---------5-4---5-4-2-|


  N.C.                                        N.C.
                                     1/4     4/4
  S   S S S S S S S S S S S S S S S    W      S S S S S S S S S S S S S S S S
|-----------------------------------|-------|---------------------------------|
|-----------------------------------|-------|---------------------------------|
|-----------------------------------|-------|---------------------------------|
|-----------------------------------|-------|---------------------------------|
|-----------------------------------|-------|-2-2-2-2-2-2-2-2-2-2-2-2-2-2-2-2-|
|-5---5-5-5-5-5-5-5-4-4-1-1-2-2-2-2-|-------|---------------------------------|
|
| Gtr III
| ~~~                       ~~~~~~~~~~~~~~
| H                 E   E   Q         +E  E   W
|-3b5---------------4---------------|-------|---------------------------------|
|-----------------------6---7-------|-(7)---|---------------------------------|
|-----------------------------------|-------|---------------------------------|
|-----------------------------------|-------|---------------------------------|
|-----------------------------------|-------|---------------------------------|
|-----------------------------------|-------|---------------------------------|


  (B)
  S S S S S S S S S S S S S S S S   S S S S S S S S S S S S S S S S
|---------------------------------|----------------------------------|
|---------------------------------|----------------------------------|
|---------------------------------|----------------------------------|
|---------------------------------|----------------------------------|
|-2-2-2-2-2-2-2-2-2-2-2-2-2-2-2-2-|-2-2-2-2-2-2-2-2-2-2-2-2-2-2-2-2--|
|---------------------------------|----------------------------------|


  D5   E5     (B)
  Gtr I
  H    H      S S S S S S S S S S S S S S S S
|-----------|---------------------------------|
|-----------|---------------------------------|
|-7----9----|---------------------------------|
|-7----9----|---------------------------------|
|-5----7----|-2-2-2-2-2-2-2-2-2-2-2-2-2-2-2-2-|
|-----------|---------------------------------|
|
| Gtr II
| H    H      S S S S S S S S S S S S S S S S
|-----------|---------------------------------|
|-----------|---------------------------------|
|-2----4----|---------------------------------|
|-2----2----|---------------------------------|
|-0----2----|-2-2-2-2-2-2-2-2-2-2-2-2-2-2-2-2-|
|-----------|---------------------------------|


 Verse
  (B)                                                                 D5/A5
                                                                     2/4
  Gtrs I, II
  S S S S S S S S S S S S S S S S   S S S S S S S S S S S S S S S S   Q  Q
|---------------------------------|---------------------------------|--------|
|---------------------------------|---------------------------------|--------|
|---------------------------------|---------------------------------|--------|
|---------------------------------|---------------------------------|-7--7---|
|-2-2-2-2-2-2-2-2-2-2-2-2-2-2-2-2-|-2-2-2-2-2-2-2-2-2-2-2-2-2-2-2-2-|-5--7---|
|---------------------------------|---------------------------------|-5--5---|


  E5                                C5
 4/4
  S S S S S S S S S S S S S S S S   S S S S S S S S S S S S S S S S
|---------------------------------|---------------------------------|
|---------------------------------|---------------------------------|
|---------------------------------|---------------------------------|
|---------------------------------|-5-------------------------------|
|-2-------------------------------|-3-3-3-3-3-3-3-3-3-3-3-3-3-3-3-3-|
|-0-0-0-0-0-0-0-0-0-0-0-0-0-0-0-0-|---------------------------------|


  E5              G5                D5              C#5
  S S S S S S S S S S S S S S S S   S S S S S S S S S S S S S S S S
|---------------------------------|----------------------------------|
|---------------------------------|----------------------------------|
|---------------------------------|----------------------------------|
|---------------------------------|-7---------------2----------------|
|-2---------------5---------------|-5-5-5-5-5-5-5-5-4-4-4-4-4-4-4-4--|
|-0-0-0-0-0-0-0-0-3-3-3-3-3-3-3-3-|----------------------------------|


  E5                                C5                      B5
  S S S S S S S S S S S S S S S S   S S S S S S S S S S S S S S S S
|---------------------------------|----------------------------------|
|---------------------------------|----------------------------------|
|---------------------------------|----------------------------------|
|---------------------------------|-5-----------------------4--------|
|-2-------------------------------|-3-3-3-3-3-3-3-3-3-3-3-3-2-2-2-2--|
|-0-0-0-0-0-0-0-0-0-0-0-0-0-0-0-0-|----------------------------------|


  A5      B5      C5      D5        D#5     E5      F#5      G5
  Gtr I
  S S S S S S S S S S S S S S S S   S S S S S S S S  S S S S  S  S  S  S
|---------------------------------|---------------------------------------|
|---------------------------------|---------------------------------------|
|---------------------------------|---------------------------------------|
|-2-------4-------5-------7-------|-8-------9-------11-------12-----------|
|-0-0-0-0-2-2-2-2-3-3-3-3-5-5-5-5-|-6-6-6-6-7-7-7-7--9-9-9-9-10-10-10-10--|
|---------------------------------|---------------------------------------|
|
| Gtr II
| S S S S S S S S S S S S S S S S   S S S S S S S S  S S S S  S  S  S  S
|---------------------------------|---------------------------------------|
|---------------------------------|---------------------------------------|
|---------------------------------|---------------------------------------|
|-2-------4-------5-------7-------|---------------------------------------|
|-0-0-0-0-2-2-2-2-3-3-3-3-5-5-5-5-|-6-6-6-6-7-7-7-7--9-9-9-9-10-10-10-10--|
|---------------------------------|---------------------------------------|


 Verse
  N.C.                              N.C.                    D5
  Gtrs I, II
  S S S S S S S S S S S S S S S S   S S S S S S S S S S S S Q
|---------------------------------|----------------------------|
|---------------------------------|----------------------------|
|---------------------------------|----------------------------|
|---------------------------------|-------------------------7--|
|-------------2-2-4-2-----2-------|-------------2-2-4-2-----5--|
|-2-2-4-4-5-5---------5-4---5-4-2-|-2-2-4-4-5-5---------5-4----|


  N.C.                                                  D5C#5
  S S S S S S S S S S S S S S S S   S S S S S S S S S S E Q
|---------------------------------|---------------------------|
|---------------------------------|---------------------------|
|---------------------------------|---------------------------|
|---------------------------------|---------------------7-6---|
|-------------2-2-4-2-----2-------|-------------2-2-5-2-5-4---|
|-2-2-4-4-5-5---------5-4---5-4-2-|-2-2-4-4-5-5---------------|


  N.C.                                                      D5
  S S S S S S S S S S S S S S S S   S S S S S S S S S S S S Q
|---------------------------------|----------------------------|
|---------------------------------|----------------------------|
|---------------------------------|----------------------------|
|---------------------------------|-------------------------7--|
|-------------2-2-4-2-----2-------|-------------2-2-4-2-----5--|
|-2-2-4-4-5-5---------5-4---5-4-2-|-2-2-4-4-5-5---------5-4----|


  N.C.                              N.C.
                                                                       1/4
  S S S S S S S S S S S S S S S S   S   S S S S S S S S S S S S S S S    W
|---------------------------------|-----------------------------------|--------|
|---------------------------------|-----------------------------------|--------|
|---------------------------------|-----------------------------------|--------|
|---------------------------------|-----------------------------------|--------|
|-------------2-2-4-2-----2-------|-----------------------------------|--------|
|-2-2-4-4-5-5---------5-4---5-4-2-|-5---5-5-5-5-5-5-5-4-4-1-1-2-2-2-2-|--------|
|
| Gtr III
|                                   ~~~                       ~~~~~~~~~~~~~~
| W                                 H                 E   E   Q         +E  E
|---------------------------------|-3b5---------------4---------------|--------|
|---------------------------------|-----------------------6---7-------|-(7)----|
|---------------------------------|-----------------------------------|--------|
|---------------------------------|-----------------------------------|--------|
|---------------------------------|-----------------------------------|--------|
|---------------------------------|-----------------------------------|--------|


  (B)
 4/4
  S S S S S S S S S S S S S S S S   S S S S S S S S S S S S S S S S
|---------------------------------|---------------------------------|
|---------------------------------|---------------------------------|
|---------------------------------|---------------------------------|
|---------------------------------|---------------------------------|
|-2-2-2-2-2-2-2-2-2-2-2-2-2-2-2-2-|-2-2-2-2-2-2-2-2-2-2-2-2-2-2-2-2-|
|---------------------------------|---------------------------------|


  (B)                               D5/A E5
  S S S S S S S S S S S S S S S S   H    H
|---------------------------------|-----------|
|---------------------------------|-----------|
|---------------------------------|------9----|
|---------------------------------|-7----9----|
|-2-2-2-2-2-2-2-2-2-2-2-2-2-2-2-2-|-5----7----|
|---------------------------------|-5---------|


 Chorus
  (B)
  S S S S S S S S S S S S S S S S   S S S S S S S S S S S S S S S S
|---------------------------------|----------------------------------|
|---------------------------------|----------------------------------|
|---------------------------------|----------------------------------|
|---------------------------------|----------------------------------|
|-2-2-2-2-2-2-2-2-2-2-2-2-2-2-2-2-|-2-2-2-2-2-2-2-2-2-2-2-2-2-2-2-2--|
|---------------------------------|----------------------------------|


  (B)                               D5/A5   (E)
                                   2/4     4/4
  S S S S S S S S S S S S S S S S   Q  Q    S S S S S S S S S S S S S S S S
|---------------------------------|-------|---------------------------------|
|---------------------------------|-------|---------------------------------|
|---------------------------------|-------|---------------------------------|
|---------------------------------|-7--7--|---------------------------------|
|-2-2-2-2-2-2-2-2-2-2-2-2-2-2-2-2-|-5--7--|---------------------------------|
|---------------------------------|-5--5--|-0-0-0-0-0-0-0-0-0-0-0-0-0-0-0-0-|


  (C)                               (E)             (G)
  S S S S S S S S S S S S S S S S   S S S S S S S S S S S S S S S S
|---------------------------------|----------------------------------|
|---------------------------------|----------------------------------|
|---------------------------------|----------------------------------|
|---------------------------------|----------------------------------|
|-3-3-3-3-3-3-3-3-3-3-3-3-3-3-3-3-|----------------------------------|
|---------------------------------|-0-0-0-0-0-0-0-0-3-3-3-3-3-3-3-3--|


  (D)                               (E)
  S S S S S S S S S S S S S S S S   S S S S S S S S S S S S S S S S
|---------------------------------|----------------------------------|
|---------------------------------|----------------------------------|
|---------------------------------|----------------------------------|
|---------------------------------|----------------------------------|
|-5-5-5-5-5-5-5-5-4-4-4-4-4-4-4-4-|----------------------------------|
|---------------------------------|-0-0-0-0-0-0-0-0-0-0-0-0-0-0-0-0--|


  (C)                               (A)     (B)     (C)     (D)
  S S S S S S S S S S S S S S S S   S S S S S S S S S S S S S S S S
|---------------------------------|----------------------------------|
|---------------------------------|----------------------------------|
|---------------------------------|----------------------------------|
|---------------------------------|----------------------------------|
|-3-3-3-3-3-3-3-3-3-3-3-3-2-2-2-2-|-0-0-0-0-2-2-2-2-3-3-3-3-5-5-5-5--|
|---------------------------------|----------------------------------|


  (D#)    (E)     (F#)    (G)           N.C.
  S S S S S S S S S S S S  S  S  S  S   S S S S S S S S S S S S S S S S
|-------------------------------------|----------------------------------|
|-------------------------------------|----------------------------------|
|-------------------------------------|----------------------------------|
|-------------------------------------|----------------------------------|
|-6-6-6-6-7-7-7-7-9-9-9-9-10-10-10-10-|-------------2-2-4-2-----2--------|
|-------------------------------------|-2-2-4-4-5-5---------5-4---5-4-2--|


  N.C.                    D5   N.C.
  S S S S S S S S S S S S Q    S S S S S S S S S S S S S S S S
|----------------------------|---------------------------------|
|----------------------------|---------------------------------|
|----------------------------|---------------------------------|
|-------------------------7--|---------------------------------|
|-------------2-2-4-2-----5--|-------------2-2-4-2-----2-------|
|-2-2-4-4-5-5---------5-4----|-2-2-4-4-5-5---------5-4---5-4-2-|


  N.C.                D5C#5  N.C.
  S S S S S S S S S S E Q    S S S S S S S S S S S S S S S S
|--------------------------|----------------------------------|
|--------------------------|----------------------------------|
|--------------------------|----------------------------------|
|---------------------7-6--|----------------------------------|
|-------------2-2-4-2-5-4--|-------------2-2-4-2-----2--------|
|-2-2-4-4-5-5--------------|-2-2-4-4-5-5---------5-4---5-4-2--|


  N.C.                    D5   N.C.
  S S S S S S S S S S S S Q    S S S S S S S S S S S S S S S S
|----------------------------|---------------------------------|
|----------------------------|---------------------------------|
|----------------------------|---------------------------------|
|-------------------------7--|---------------------------------|
|-------------2-2-4-2-----5--|-------------2-2-4-2-----2-------|
|-2-2-4-4-5-5---------5-4----|-2-2-4-4-5-5---------5-4---5-4-2-|


  N.C.
  S S S S S S S S S S S S S S S S
|---------------------------------||
|---------------------------------||
|---------------------------------||
|-4-4-4-4-------------------------||
|---------4-4-4-4-----------------||
|-----------------5-5-5-5-2-2-2-2-||
|
| Gtr III
| W
|---------------------------------||
|---------------------------------||
|---------------------------------||
|---------------------------------||
|---------------------------------||
|---------------------------------||


 Guitar Solo 1
  (B)
   S S S S  S  S  S  S  S  S  S  S  S  S  S  S
|-----------------------------------------------|
|-----------------------------------------------|
|-----------------------------------------------|
|-----------------------------------------------|
|--2-2-2-2--2--2--2--2--2--2--2--2--2--2--2--2--|
|-----------------------------------------------|
|
|  S S S S  S  S  S  S  S  S  S  S  S  S  S  S
|-10p7---7-14p10----10-19p14----14-19p14----14--|
|------7---------12----------15----------15-----|
|-----------------------------------------------|
|-----------------------------------------------|
|-----------------------------------------------|
|-----------------------------------------------|


  (B)
   S S S S  S  S  S  S  S  S  S  S  S  S  S  S
|----------------------------------------------|
|----------------------------------------------|
|----------------------------------------------|
|----------------------------------------------|
|--2-2-2-2--2--2--2--2--2--2--2--2--2--2--2--2-|
|----------------------------------------------|
|
|  S S S S  S  S  S  S  S  S  S  S  S  S  S  S
|-10p7---7-14p10----10-19p14----14-19p14----14-|
|------7---------12----------15----------15----|
|----------------------------------------------|
|----------------------------------------------|
|----------------------------------------------|
|----------------------------------------------|


  F#5
   S  S  S  S  S  S  S  S  S  S  S  S  S S S S
|-----------------------------------------------|
|-----------------------------------------------|
|-----------------------------------------------|
|-----------------------------------------------|
|--4--4--4--4--4--4--4--4--4--4--4--4--4-4-4-4--|
|--2--2--2--2--2--2--2--2--2--2--2--2--2-2-2-2--|
|
|  S  S  S  S  S  S  S  S  S  S  S  S  S S S S
|-19p16----16-16p13----13-13p10----10-10p7---7--|
|-------18----------15----------12---------9----|
|-----------------------------------------------|
|-----------------------------------------------|
|-----------------------------------------------|
|-----------------------------------------------|


  F#5
   S  S  S  S  S  S  S  S  S  S  S  S  S  S  S  S
|-------------------------------------------------|
|-------------------------------------------------|
|-------------------------------------------------|
|-------------------------------------------------|
|--4--4--4--4--4--4--4--4--4--4--4--4--4--4--4--4-|
|--2--2--2--2--2--2--2--2--2--2--2--2--2--2--2--2-|
|
|  S  S  S  S  S  S  S  S  S  S  S  S  S  S  S  S
|-13p10----10-16p13----13-19p16----13-19p16----16-|
|-------12----------15----------18----------18----|
|-------------------------------------------------|
|-------------------------------------------------|
|-------------------------------------------------|
|-------------------------------------------------|


  (B)
   S S S S  S  S  S  S  S  S  S  S  S  S  S  S
|-----------------------------------------------|
|-----------------------------------------------|
|-----------------------------------------------|
|-----------------------------------------------|
|--2-2-2-2--2--2--2--2--2--2--2--2--2--2--2--2--|
|-----------------------------------------------|
|
|  S S S S  S  S  S  S  S  S  S  S  S  S  S  S
|-10p7---7-14p10----10-19p14----14-19p14----14--|
|------7---------12----------15----------15-----|
|-----------------------------------------------|
|-----------------------------------------------|
|-----------------------------------------------|
|-----------------------------------------------|


  (B)
   S S S S  S  S  S  S  S  S  S  S  S  S  S  S
|----------------------------------------------|
|----------------------------------------------|
|----------------------------------------------|
|----------------------------------------------|
|--2-2-2-2--2--2--2--2--2--2--2--2--2--2--2--2-|
|----------------------------------------------|
|
|  S S S S  S  S  S  S  S  S  S  S  S  S  S  S
|-10p7---7-14p10----10-19p14----14-19p14----14-|
|------7---------12----------15----------15----|
|----------------------------------------------|
|----------------------------------------------|
|----------------------------------------------|
|----------------------------------------------|


  (F)
   S  S  S  S  S  S  S  S  S  S  S  S  S S S S
|-----------------------------------------------|
|-----------------------------------------------|
|-----------------------------------------------|
|-----------------------------------------------|
|-----------------------------------------------|
|--1--1--1--1--1--1--1--1--1--1--1--1--1-1-1-1--|
|
|  S  S  S  S  S  S  S  S  S  S  S  S  S S S S
|-19p16----16-16p13----13-13p10----10-10p7---7--|
|-------18----------15----------12---------9----|
|-----------------------------------------------|
|-----------------------------------------------|
|-----------------------------------------------|
|-----------------------------------------------|


  (F)
   S  S  S  S  S  S  S  S  S  S  S  S  S  S  S  S
|-------------------------------------------------|
|-------------------------------------------------|
|-------------------------------------------------|
|-------------------------------------------------|
|-------------------------------------------------|
|--1--1--1--1--1--1--1--1--1--1--1--1--1--1--1--1-|
|
|  S  S  S  S  S  S  S  S  S  S  S  S  S  S  S  S
|-13p10----10-16p13----13-19p16----13-19p16----16-|
|-------12----------15----------18----------18----|
|-------------------------------------------------|
|-------------------------------------------------|
|-------------------------------------------------|
|-------------------------------------------------|


  (F#)
   S  S  S  S  S  S  S  S  S  S  S  S  S  S  S  S
|--------------------------------------------------|
|--------------------------------------------------|
|--------------------------------------------------|
|--------------------------------------------------|
|--------------------------------------------------|
|--2--2--2--2--2--2--2--2--2--2--2--2--2--2--2--2--|
|
|  S  S  S  S  S  S  S  S  S  S  S  S  S  S  S  S
|-19p14----14-19p14----14-19p14----14-19p14----14--|
|-------14----------14----------14----------14-----|
|--------------------------------------------------|
|--------------------------------------------------|
|--------------------------------------------------|
|--------------------------------------------------|


  (F#)
   S  S  S  S  S  S  S  S  S  S  S  S  S  S  S  S
|-------------------------------------------------|
|-------------------------------------------------|
|-------------------------------------------------|
|-------------------------------------------------|
|-------------------------------------------------|
|--2--2--2--2--2--2--2--2--2--2--2--2--2--2--2--2-|
|
|  S  S  S  S  S  S  S  S  S  S  S  S  S  S  S  S
|-18p14----14-18p14----14-18p14----14-18p14----14-|
|-------14----------14----------14----------14----|
|-------------------------------------------------|
|-------------------------------------------------|
|-------------------------------------------------|
|-------------------------------------------------|


  (E)
  S  S S S S S S S  S  S S S S S S S
|-------------------------------------|
|-------------------------------------|
|-------------------------------------|
|-------------------------------------|
|-------------------------------------|
|-0--0-0-0-0-0-0-0--0--0-0-0-0-0-0-0--|
|
| \2
| H                 H
|-------------------------------------|
|-------------------------------------|
|-------------------------------------|
|-------------------------------------|
|-------------------------------------|
|-0----------------12\----------------|


  (C)
  S    S S S  S      S      S      S     S S   S S S S S S
|------------------------------------------------------------|
|------------------------------------------------------------|
|------------------------------------------------------------|
|------------------------------------------------------------|
|-3----3-3-3--3------3------3------3-----3-3---3-3-3-3-3-3---|
|------------------------------------------------------------|
|
|                                          \1_________________
|             |----3----|   |----3----|
| Q          +S  +S    +S  +S  +S     S  S S   S S S S S S
|------------------------------------------------------------|
|----------------------------------------5-------------------|
|-7b9========(7)-(7)---(7)-(7)-(7)r==(7)---7---5-4-7-5-4-7b9-|
|------------------------------------------------------------|
|------------------------------------------------------------|
|------------------------------------------------------------|


  (E)                  (G)
   S     S S S S S S S  S    S S S  S  S  S     S
|--------------------------------------------------|
|--------------------------------------------------|
|--------------------------------------------------|
|--------------------------------------------------|
|--------------------------------------------------|
|--0-----0-0-0-0-0-0-0--3----3-3-3--3--3--3-----3--|
|
|  \1.5_____________________________________________
|                       ~~~~~
| +Q           Q        Q           S  S  S     S
|--------------------------------------------------|
|----------------------13b15-------13-12-10b12-12--|
|-(7)\---------------------------------------------|
|--------------------------------------------------|
|--------------------------------------------------|
|--------------------------------------------------|


  (D)                (C#)              (E)
   S  S  S S S S S S S S S S S S S S   S S S S S S S S S S S S     S S S S
|------------------------------------|--------------------------------------|
|------------------------------------|--------------------------------------|
|------------------------------------|--------------------------------------|
|------------------------------------|--------------------------------------|
|--5--5--5-5-5-5-5-5-4-4-4-4-4-4-4-4-|--------------------------------------|
|------------------------------------|-0-0-0-0-0-0-0-0-0-0-0-0-----0-0-0-0--|
|
|                                      \2                    \1.5
|  S  S  S S S S S S S S S S S S S S   S S S S S S S S S S S S     S S S S
|------------------------------------|--------------------------------------|
|-10---------------------------------|--------------------------------------|
|----12-11-9-9-9-9-9---------9-9-9-9-|-7h9p7s5-5h7p5s4-4h5p4------/7-5-4-5--|
|--------------------9-9-9-9---------|-----------------------7--------------|
|------------------------------------|--------------------------------------|
|------------------------------------|--------------------------------------|


  (C)
  S S S S S S S S   S S S S S S S S
|-----------------------------------|
|-----------------------------------|
|-----------------------------------|
|-----------------------------------|
|-3-3-3-3-3-3-3-3---3-3-3-3-2-2-2-2-|
|-----------------------------------|
|
|               \2___________________
| S S S S S S S S   S S S S S S S S
|-----------------------------------|
|-----5-4h5p4-5-7---5-4-5-4-5-7-7-7-|
|-4---------------------------------|
|---7-------------------------------|
|-----------------------------------|
|-----------------------------------|


  (E)
   S  S  S S  S     S  S  S S  S     S  S  S S  S  S
|-----------------------------------------------------|
|-----------------------------------------------------|
|-----------------------------------------------------|
|-----------------------------------------------------|
|--0--0--0-0--0-----0--0--0-0--0-----0--0--0-0--0--0--|
|-----------------------------------------------------|
|
|             \1.5             \1.5
|  S  S  S S  S     S  S  S S  S     S  S  S S  S  S
|-----------------------------------------------------|
|-----------------------------------------------------|
|-12-12-11-9-11----12-12-11-9-11----12-12-11-9-11-12--|
|-----------------------------------------------------|
|-----------------------------------------------------|
|-----------------------------------------------------|


  (B)
   S S S S  S S S S S S S S S S S S
|-----------------------------------|
|-----------------------------------|
|-----------------------------------|
|-----------------------------------|
|--2-2-2-2--2-2-2-2-2-2-2-2-2-2-2-2-|
|-----------------------------------|
|
|  S S S S  S S S S S S S S S S S S
|-10p7---7-10p7---7-9p7---7-9p7---7-|
|------7--------7-------7-------7---|
|-----------------------------------|
|-----------------------------------|
|-----------------------------------|
|-----------------------------------|


  (E)
   S    S     S    S      S S S S  S    S     S    S      S S S S
|-------------------------------------------------------------------|
|-------------------------------------------------------------------|
|-------------------------------------------------------------------|
|-------------------------------------------------------------------|
|-------------------------------------------------------------------|
|--0----0-----0----0------0-0-0-0--0----0-----0----0------0-0-0-0---|
|
|  |---3---|  |---3----|           |---3---|  |---3----|
|  S  S    S  S  S     S  Q        S  S    S  S  S     S  Q
|-15p12---------------------------15p12-----------------------------|
|---------12------------------------------12------------------------|
|------------12------------------------------12---------------------|
|---------------14------------------------------14------------------|
|-------------------------------------------------------------------|
|--------------------(12)----------------------------(12)-----------|


  (C)
   S  S  S  S  S  S  S  S  S S S S S S S S
|------------------------------------------|
|------------------------------------------|
|------------------------------------------|
|------------------------------------------|
|--3--3--3--3--3--3--3--3--3-3-3-3-3-3-3-3-|
|------------------------------------------|
|
|                          ~~
|  S  S  S  S  S  S  S  S  H
|----------------------12-15---------------|
|----------------12-13---------------------|
|----------12-14---------------------------|
|----12-14---------------------------------|
|-15---------------------------------------|
|------------------------------------------|


  (E)                   (G)
   S    S S S  S S  S S  S S  S S   S  S  S S
|----------------------------------------------|
|----------------------------------------------|
|----------------------------------------------|
|----------------------------------------------|
|----------------------------------------------|
|--0----0-0-0--0-0--0-0--3-3--3-3---3--3--3-3--|
|
|                             ~~~~~~~~~
|  Q           E    E    E    E    +E     E
|-17b19-------17---15---14---12---(12)---------|
|----------------------------------------19----|
|----------------------------------------------|
|----------------------------------------------|
|----------------------------------------------|
|----------------------------------------------|


  (D)                 (C#)
   S    S S S S S S S S S S S S S S S
|-------------------------------------|
|-------------------------------------|
|-------------------------------------|
|-------------------------------------|
|--5----5-5-5-5-5-5-5-4-4-4-4-4-4-4-4-|
|-------------------------------------|
|
|  ~~~~~
|  W
|-------------------------------------|
|-19b20-------------------------------|
|-------------------------------------|
|-------------------------------------|
|-------------------------------------|
|-------------------------------------|


  (E)
   S  S  S  S  S  S  S  S  S    S S S S S S S
|----------------------------------------------|
|----------------------------------------------|
|----------------------------------------------|
|----------------------------------------------|
|----------------------------------------------|
|--0--0--0--0--0--0--0--0--0----0-0-0-0-0-0-0--|
|
|                          ~~~~~
|  S  S  S  S  S  S  S  S  H
|-------------------------10b12----------------|
|----------12-13-15-13-12----------------------|
|----12-14-------------------------------------|
|-14-------------------------------------------|
|----------------------------------------------|
|----------------------------------------------|


  (C)
  S    S   S    S   S    S   S    S   S    S   S    S   S    S   S    S
|-------------------------------------------------------------------------|
|-------------------------------------------------------------------------|
|-------------------------------------------------------------------------|
|-------------------------------------------------------------------------|
|-3----3---3----3---3----3---3----3---3----3---3----3---2----2---2----2---|
|-------------------------------------------------------------------------|
|
| |--3---| |--3---| |--3---| |--3---| |--3---| |--3---| |--3---| |--3---|
| S  S   S S  S   S S  S   S S  S   S S  S   S S  S   S S  S   S S  S   S
|-0-12---8-0-12---8-0-12---8-0-12---8-0-12---8-0-12---8-0-10---7-0-10---7-|
|-------------------------------------------------------------------------|
|-------------------------------------------------------------------------|
|-------------------------------------------------------------------------|
|-------------------------------------------------------------------------|
|-------------------------------------------------------------------------|


  (A)
  S   S   S   S   S   S   S   S   S   S   S   S   S   S   S   S
|--------------------------------------------------------------------|
|--------------------------------------------------------------------|
|--------------------------------------------------------------------|
|--------------------------------------------------------------------|
|-0---0---0---0---0---0---0---0---0---0---0---0---0---0---0---0------|
|--------------------------------------------------------------------|
|
| |--3--| |--3--| |--3--| |--3--| |--3--| |--3--| |--3--| |--3--|
| S S   S S S   S S S   S S S   S S S   S S S   S S S   S S S   S
|-0-8---5-0-8---5-0-8---5-0-8---5-0-8---5-0-8---5-0-8---5-0-8---5----|
|--------------------------------------------------------------------|
|--------------------------------------------------------------------|
|--------------------------------------------------------------------|
|--------------------------------------------------------------------|
|--------------------------------------------------------------------|


  (B)                                   (F#)
  S S S   S S S S S S   S S S S S S S   S S S S S S S S S S S S S S S S
|-------------------------------------|----------------------------------|
|-------------------------------------|----------------------------------|
|-------------------------------------|----------------------------------|
|-------------------------------------|----------------------------------|
|-2-2-2---2-2-2-2-2-2---2-2-2-2-2-2-2-|----------------------------------|
|-------------------------------------|-2-2-2-2-2-2-2-2-2-2-2-2-2-2-2-2--|
|
|                   ~~~
| E   E     Q       Q         Q         W
|-------------------5b7---------------|----------------------------------|
|-----5b7-----------------------------|----------------------------------|
|-------------------------------------|----------------------------------|
|-------------------------------------|----------------------------------|
|-------------------------------------|----------------------------------|
|-------------------------------------|----------------------------------|


 Keyboard Solo
  (F#)
  S S S S S S S S S S S S S S S S   S S S S S S S S S S S S S S S S
|---------------------------------|----------------------------------|
|---------------------------------|----------------------------------|
|---------------------------------|----------------------------------|
|---------------------------------|----------------------------------|
|---------------------------------|----------------------------------|
|-2-2-2-2-2-2-2-2-2-2-2-2-2-2-2-2-|-2-2-2-2-2-2-2-2-2-2-2-2-2-2-2-2--|


  (F#)
  S S S S S S S S S S S S S S S S   S S S S S S S S S S S S S S S S
|---------------------------------|----------------------------------|
|---------------------------------|----------------------------------|
|---------------------------------|----------------------------------|
|---------------------------------|----------------------------------|
|---------------------------------|----------------------------------|
|-2-2-2-2-2-2-2-2-2-2-2-2-2-2-2-2-|-2-2-2-2-2-2-2-2-2-2-2-2-2-2-2-2--|


  (F#)
  S S S S S S S S S S S S S S S S   S S S S S S S S S S S S S S S S
|---------------------------------|----------------------------------|
|---------------------------------|----------------------------------|
|---------------------------------|----------------------------------|
|---------------------------------|----------------------------------|
|---------------------------------|----------------------------------|
|-2-2-2-2-2-2-2-2-2-2-2-2-2-2-2-2-|-2-2-2-2-2-2-2-2-2-2-2-2-2-2-2-2--|


  (F#)
  S S S S S S S S S S S S S S S S
|---------------------------------||
|---------------------------------||
|---------------------------------||
|---------------------------------||
|---------------------------------||
|-2-2-2-2-2-2-2-2-2-2-2-2-2-2-2-2-||
|
| Gtr III
| W
|---------------------------------||
|---------------------------------||
|---------------------------------||
|---------------------------------||
|---------------------------------||
|---------------------------------||


 Guitar Solo 2
  (B)                     (A)
   S  S  S  S  S  S  S  S  S  S  S  S  S  S  S  S
|--------------------------------------------------|
|--------------------------------------------------|
|--------------------------------------------------|
|--------------------------------------------------|
|--2--2--2--2--2--2--2--2--0--0--0--0--0--0--0--0--|
|--------------------------------------------------|
|
|  S  S  S  S  S  S  S  S  S  S  S  S  S  S  S  S
|----------16----------------------16--------------|
|-19-18-19----19-18-19----19-18-19----19-18-19-----|
|----------------------19----------------------18--|
|--------------------------------------------------|
|--------------------------------------------------|
|--------------------------------------------------|


  (G#)                    (F#)
   S  S  S  S  S  S  S  S  S  S  S  S  S  S  S  S
|-------------------------------------------------|
|-------------------------------------------------|
|-------------------------------------------------|
|-------------------------------------------------|
|-------------------------------------------------|
|--4--4--4--4--4--4--4--4--2--2--2--2--2--2--2--2-|
|
|  S  S  S  S  S  S  S  S  S  S  S  S  S  S  S  S
|----------16----------------------16-------------|
|-19-18-19----19-18-19----19-18-19----19-18-19----|
|----------------------16----------------------14-|
|-------------------------------------------------|
|-------------------------------------------------|
|-------------------------------------------------|


  (B)                     (A)
   S  S  S  S  S  S  S  S  S  S  S  S  S  S  S  S
|--------------------------------------------------|
|--------------------------------------------------|
|--------------------------------------------------|
|--------------------------------------------------|
|--2--2--2--2--2--2--2--2--0--0--0--0--0--0--0--0--|
|--------------------------------------------------|
|
|  S  S  S  S  S  S  S  S  S  S  S  S  S  S  S  S
|----------16----------------------16--------------|
|-19-18-19----19-18-19----19-18-19----19-18-19-14--|
|----------------------19--------------------------|
|--------------------------------------------------|
|--------------------------------------------------|
|--------------------------------------------------|


  (G#)        (A)         (G#)        (A)
   S  S  S  S  S  S  S  S  S  S  S  S  S  S  S  S
|-------------------------------------------------|
|-------------------------------------------------|
|-------------------------------------------------|
|-------------------------------------------------|
|-------------------------------------------------|
|--4--4--4--4--5--5--5--5--4--4--4--4--5--5--5--5-|
|
|                                               ~~~
|  S  S  S  S  S  S  S  S  S  S  S  S  S  S  S  S
|-------------------------------------------------|
|-19-18-19-15-19-18-19-14-19-18-19-15-19-18-19-14-|
|-------------------------------------------------|
|-------------------------------------------------|
|-------------------------------------------------|
|-------------------------------------------------|


  (F)
    S  S S S S S S S  S    S     S    S     S    S     S    S
|------------------------------------------------------------------|
|------------------------------------------------------------------|
|------------------------------------------------------------------|
|------------------------------------------------------------------|
|------------------------------------------------------------------|
|---1--1-1-1-1-1-1-1--1----1-----1----1-----1----1-----1----1------|
|
|~~~~~~
|                     |---3---|  |---3---|  |---3---|  |---3---|
|  +H                 S  S    S  S  S    S  S  S    S  S  S    S
|-------------------------------14-16---17-16-14---16-14-13--------|
|-(14)---------------14-15---17-------------------------------15---|
|------------------------------------------------------------------|
|------------------------------------------------------------------|
|------------------------------------------------------------------|
|------------------------------------------------------------------|


  (C#)
   S    S     S    S     S   S    S   S   S   S    S   S     S   S     S    S
|------------------------------------------------------------------------------------|
|------------------------------------------------------------------------------------|
|------------------------------------------------------------------------------------|
|------------------------------------------------------------------------------------|
|--4----4-----4----4-----4---4----4---4---4---4----4---4-----4---4-----4----4--------|
|------------------------------------------------------------------------------------|
|
|  |---3---|  |---3---|  |--3---| |--3--| |--3---| |--3---|  |--3---|  |---3---|
|  S  S    S  S  S    S  S S    S S S   S S S    S S S    S  S S    S  S  S    S
|------------------------------------------------------------------13-14-13---17pb19r|
|-14-12---14-12-10---12-10-9---10-9-7---9-7-6---10-9-7------10-9---------------------|
|--------------------------------------------------------13--------------------------|
|------------------------------------------------------------------------------------|
|------------------------------------------------------------------------------------|
|------------------------------------------------------------------------------------|


 2/4
    S  S S S S S S S
|---------------------|
|---------------------|
|---------------------|
|---------------------|
|---4--4-4-4-4-4-4-4--|
|---------------------|
|
|   ~~~~
|   Q        Q
|-(17)----------------|
|---------------------|
|---------------------|
|---------------------|
|---------------------|
|---------------------|


 Chorus
  (B)
 4/4
  S S S S S S S S S S S S S S S S   S S S S S S S S S S S S S S S S
|---------------------------------|---------------------------------|
|---------------------------------|---------------------------------|
|---------------------------------|---------------------------------|
|---------------------------------|---------------------------------|
|-2-2-2-2-2-2-2-2-2-2-2-2-2-2-2-2-|-2-2-2-2-2-2-2-2-2-2-2-2-2-2-2-2-|
|---------------------------------|---------------------------------|


  (B)                               D5   E5
  S S S S S S S S S S S S S S S S   H    H
|---------------------------------|-----------|
|---------------------------------|-----------|
|---------------------------------|-7----9----|
|---------------------------------|-7----9----|
|-2-2-2-2-2-2-2-2-2-2-2-2-2-2-2-2-|-5----7----|
|---------------------------------|-----------|


  (B)
  S S S S S S S S S S S S S S S S   S S S S S S S S S S S S S S S S
|---------------------------------|----------------------------------|
|---------------------------------|----------------------------------|
|---------------------------------|----------------------------------|
|---------------------------------|----------------------------------|
|-2-2-2-2-2-2-2-2-2-2-2-2-2-2-2-2-|-2-2-2-2-2-2-2-2-2-2-2-2-2-2-2-2--|
|---------------------------------|----------------------------------|


  (B)                               D5/A5   E5
                                   2/4     4/4
  S S S S S S S S S S S S S S S S   Q  Q    S S S S S S S S S S S S S S S S
|---------------------------------|-------|---------------------------------|
|---------------------------------|-------|---------------------------------|
|---------------------------------|-------|---------------------------------|
|---------------------------------|-7--7--|---------------------------------|
|-2-2-2-2-2-2-2-2-2-2-2-2-2-2-2-2-|-5--7--|-2-------------------------------|
|---------------------------------|-5--5--|-0-0-0-0-0-0-0-0-0-0-0-0-0-0-0-0-|


  C5                                E5              G5
  S S S S S S S S S S S S S S S S   S S S S S S S S S S S S S S S S
|---------------------------------|----------------------------------|
|---------------------------------|----------------------------------|
|---------------------------------|----------------------------------|
|-5-------------------------------|----------------------------------|
|-3-3-3-3-3-3-3-3-3-3-3-3-3-3-3-3-|-2---------------5----------------|
|---------------------------------|-0-0-0-0-0-0-0-0-3-3-3-3-3-3-3-3--|


  D5              C#m               E5
  S S S S S S S S S S S S S S S S   S S S S S S S S S S S S S S S S
|---------------------------------|----------------------------------|
|---------------------------------|----------------------------------|
|---------------------------------|----------------------------------|
|-7---------------2---------------|----------------------------------|
|-5-5-5-5-5-5-5-5-4-4-4-4-4-4-4-4-|-2--------------------------------|
|---------------------------------|-0-0-0-0-0-0-0-0-0-0-0-0-0-0-0-0--|


  C5                      B5        A5      B5      C5      D5
  S S S S S S S S S S S S S S S S   S S S S S S S S S S S S S S S S
|---------------------------------|----------------------------------|
|---------------------------------|----------------------------------|
|---------------------------------|----------------------------------|
|-5-----------------------4-------|-2-------4-------5-------7--------|
|-3-3-3-3-3-3-3-3-3-3-3-3-2-2-2-2-|-0-0-0-0-2-2-2-2-3-3-3-3-5-5-5-5--|
|---------------------------------|----------------------------------|


                                         Pre-Verse
  D#5     E5      F#5      G5             N.C.
  S S S S S S S S  S S S S  S  S  S  S    S S S S S S S S S S S S S S S S
|--------------------------------------||----------------------------------|
|--------------------------------------||----------------------------------|
|--------------------------------------||----------------------------------|
|-8-------9-------11-------12----------||----------------------------------|
|-6-6-6-6-7-7-7-7--9-9-9-9-10-10-10-10-||-------------2-2-4-2-----2--------|
|--------------------------------------||-2-2-4-4-5-5---------5-4---5-4-2--|


  N.C.                    D5   N.C.
  S S S S S S S S S S S S Q    S S S S S S S S S S S S S S S S
|----------------------------|---------------------------------|
|----------------------------|---------------------------------|
|----------------------------|---------------------------------|
|-------------------------7--|---------------------------------|
|-------------2-2-4-2-----5--|-------------2-2-4-2-----2-------|
|-2-2-4-4-5-5---------5-4----|-2-2-4-4-5-5---------5-4---5-4-2-|


  N.C.                    D5   N.C.
  S S S S S S S S S S S S Q    S S S S S S S S S S S S S S S S
|----------------------------|---------------------------------|
|----------------------------|---------------------------------|
|----------------------------|---------------------------------|
|-------------------------7--|---------------------------------|
|-------------2-2-4-2-----5--|-------------2-2-4-2-----2-------|
|-2-2-4-4-5-5---------5-4----|-2-2-4-4-5-5---------5-4---5-4-2-|


  N.C.                    D5   N.C.
  S S S S S S S S S S S S Q    S S S S S S S S S S S S S S S S
|----------------------------|---------------------------------|
|----------------------------|---------------------------------|
|----------------------------|---------------------------------|
|-------------------------7--|---------------------------------|
|-------------2-2-4-2-----5--|-------------2-2-4-2-----2-------|
|-2-2-4-4-5-5---------5-4----|-2-2-4-4-5-5---------5-4---5-4-2-|


  N.C.                    D5   N.C.
  S S S S S S S S S S S S Q    S S S S S S S S S S S S S S S S
|----------------------------|---------------------------------|
|----------------------------|---------------------------------|
|----------------------------|---------------------------------|
|-------------------------7--|---------------------------------|
|-------------2-2-4-2-----5--|-------------2-2-4-2-----2-------|
|-2-2-4-4-5-5---------5-4----|-2-2-4-4-5-5---------5-4---5-4-2-|


  N.C.                              N.C.
  S S S S S S S S S S S S S S S S   S S S S S S S S S S S S S S S S
|---------------------------------|----------------------------------|
|---------------------------------|----------------------------------|
|---------------------------------|----------------------------------|
|---------------------------------|----------------------------------|
|-------------2-2-4-2-----2-------|-------------2-2-4-2-----2--------|
|-2-2-4-4-5-5---------5-4---5-4-2-|-2-2-4-4-5-5---------5-4---5-4-2--|


  N.C.                              N.C.
  S S S S S S S S S S S S S S S S   S S S S S S S S S S S S S S S S
|---------------------------------|----------------------------------|
|---------------------------------|----------------------------------|
|---------------------------------|----------------------------------|
|---------------------------------|----------------------------------|
|-------------2-2-4-2-----2-------|-------------2-2-4-2-----2--------|
|-2-2-4-4-5-5---------5-4---5-4-2-|-2-2-4-4-5-5---------5-4---5-4-2--|


  N.C.                              N.C.
  S S S S S S S S S S S S S S S S   S S S S S S S S S S S S S S S S
|---------------------------------|----------------------------------|
|---------------------------------|----------------------------------|
|---------------------------------|----------------------------------|
|---------------------------------|----------------------------------|
|-------------2-2-4-2-----2-------|-------------2-2-4-2-----2--------|
|-2-2-4-4-5-5---------5-4---5-4-2-|-2-2-4-4-5-5---------5-4---5-4-2--|


                      Outro
  N.C.                 (B)                     (E)
 3/4                  4/4
  S S S S S S S S Q     S  S  S  S  S  S  S  S  S  S  S  S  S  S  S  S
|--------------------|--------------------------------------------------|
|--------------------|--------------------------------------------------|
|--------------------|--------------------------------------------------|
|--------------------|--------------------------------------------------|
|-------------2-2-4--|--2--2--2--2--2--2--2--2--0--0--0--0--0--0--0--0--|
|-2-2-4-4-5-5--------|--------------------------------------------------|
|
| Gtr III
| W                     S  S  S  S  S  S  S  S  S  S  S  S  S  S  S  S
|--------------------|----------16----------------------16--------------|
|--------------------|-19-18-19----19-18-19----19-18-19----19-18-19-14--|
|--------------------|----------------------19--------------------------|
|--------------------|--------------------------------------------------|
|--------------------|--------------------------------------------------|
|--------------------|--------------------------------------------------|


  (G#)                    (F#)
   S  S  S  S  S  S  S  S  S  S  S  S  S  S  S  S
|-------------------------------------------------|
|-------------------------------------------------|
|-------------------------------------------------|
|-------------------------------------------------|
|-------------------------------------------------|
|--4--4--4--4--4--4--4--4--2--2--2--2--2--2--2--2-|
|
|  S  S  S  S  S  S  S  S  S  S  S  S  S  S  S  S
|-------------------------------------------------|
|-19-18-19-15-19-18-19-14-15----14----------------|
|----------------------------16----14-16-13-14----|
|----------------------------------------------16-|
|-------------------------------------------------|
|-------------------------------------------------|


  (F)                         (G#)
   S  S  S  S        S  S S S S S S S S S S S
|---------------------------------------------|
|---------------------------------------------|
|---------------------------------------------|
|---------------------------------------------|
|---------------------------------------------|
|--1--1--1--1--------1--1-1-1-4-4-4-4-4-4-4-4-|
|
|  ~~                ~~~
|  S  S  S  S  a     H.
|---------------------------------------------|
|---------------------------------------------|
|-13------------------------------------------|
|----15-16-18---------------------------------|
|-------------15b17r15------------------------|
|---------------------------------------------|


  (B)                (D)               C#5C#sus4    C#sus4
    S  S S S S S S S S S S S S S S S   Q  H.        W
|------------------------------------|------------|------*|
|------------------------------------|------------|------*|
|------------------------------------|----6-------|-6----*|
|------------------------------------|-6--4-------|-4----*|
|---2--2-2-2-2-2-2-2-5-5-5-5-5-5-5-5-|-4--4-------|-4----*|
|------------------------------------|------------|------*|
|
|   ~~~~
|  +W                                  W            W
|------------------------------------|------------|------*|
|------------------------------------|------------|------*|
|------------------------------------|------------|------*|
|------------------------------------|------------|------*|
|-(15)-------------------------------|------------|------*|
|------------------------------------|------------|------*|



Duration Legend
---------------
W - whole; H - half; Q - quarter; E - 8th; S - 16th; T - 32nd; X - 64th; a - acciaccatura
+ - note tied to previous; . - note dotted; .. - note double dotted
Uncapitalized letters represent notes that are staccato (1/2 duration)
Irregular groupings are notated above the duration line
Duration letters will always appear directly above the note/fret number it represents the
duration for.  Duration letters with no fret number below them represent rests.  Multi-
bar rests are notated in the form Wxn, where n is the number of bars to rest for.  Low
melody durations appear below the staff

Tablature Legend
----------------
 h   - hammer-on
 p   - pull-off
 b   - bend
 pb  - pre-bend
 r   - bend release (if no number after the r, then release immediately)
 /\  - slide into or out of (from/to "nowhere")
 s   - legato slide
 S   - shift slide
 - natural harmonic
[n]  - artificial harmonic
n(n) - tapped harmonic
 ~   - vibrato
 tr  - trill
 T   - tap
 TP  - trem. picking
 PM  - palm muting
\n/  - tremolo bar dip; n = amount to dip
 \n  - tremolo bar down
 n/  - tremolo bar up
/n\  - tremolo bar inverted dip
 =   - hold bend; also acts as connecting device for hammers/pulls
 <> - volume swell (louder/softer)
 x   - on rhythm slash represents muted slash
 o   - on rhythm slash represents single note slash

Misc Legend
-----------
 |  - bar
||  - double bar
||o - repeat start
o|| - repeat end
*|  - double bar (ending)
 :  - bar (freetime)
 $  - Segno
 &  - Coda
Tempo markers -  = BPM(8/16=s8/s16), where s8 = swing 8ths, s16 = swing 16ths
            
Submit corrections

comments powered by Disqus
↑ Back to top | Rata Blanca Tabs for Los Ojos Del Dragon. Lyrics for acoustic guitar and electric guitar. Tablatures and chords are parodies/interpretations of the original songs. You may use it for private study, scholarship, research or language learning purposes only