>
 >
La Danza Del Fuego

La Danza Del Fuego Guitar Tabs

Rata Blanca - La Danza Del Fuego chords, tabs, tablatures, lyrics

Guitar lessons | Add/correct | Request | Top 50 tabs Artists:  A B C D E F G H I J K L M N O P Q R S T U V W X Y Z 0-9

La Danza Del Fuego Guitar Tabs – Rata Blanca

CD, Sheet music, Poster

Do you like La Danza Del Fuego? Share with your friends now
Tabs
|-8-p-5-------5-8-p-5-|-12-p-8---------8-10-p-8-|-17-p-12----------12-17-p-12-|
|-------5---5---------|--------10---10----------|---------13----13------------|
|---------5-----------|-----------9-------------|------------14---------------|
|---------------------|-------------------------|-----------------------------|
|---------------------|-------------------------|-----------------------------|
|---------------------|-------------------------|-----------------------------|


|-20-20-17\12-17-p-12-------|-13-p-10----------10-13-p-10-|-17-p-13----------13-17-p-13-|
|---------------------13----|---------10----10------------|---------15----15------------|
|------------------------14-|------------10---------------|------------14---------------|
|---------------------------|-----------------------------|-----------------------------|
|---------------------------|-----------------------------|-----------------------------|
|---------------------------|-----------------------------|-----------------------------|


|-17-p-14----------14-17-p-14-|-20-p-17----------17-20-p-17-|-19-p-16----------16-19-p-16-|
|---------16----16------------|---------19----19------------|---------18----18------------|
|------------17---------------|------------20---------------|------------19---------------|
|-----------------------------|-----------------------------|-----------------------------|
|-----------------------------|-----------------------------|-----------------------------|
|-----------------------------|-----------------------------|-----------------------------|


|-16-p-13----------13-16-p-13-|-13-p-10----------10-13-p-10-|-10-p-7--------7-10-p-7-|
|---------15----15------------|---------12----12------------|--------9----9----------|
|------------16---------------|------------13---------------|----------10------------|
|-----------------------------|-----------------------------|------------------------|
|-----------------------------|-----------------------------|------------------------|
|-----------------------------|-----------------------------|------------------------|


|-12-p-8---------8-13-p-8-12-p-8---------8-12-p-8-|-11-p-8----------8-11-p-8-|
|--------10---10-----------------10---10----------|--------10----10----------|
|-----------9-----------------------9-------------|-----------11-------------|
|-------------------------------------------------|--------------------------|
|-------------------------------------------------|--------------------------|
|-------------------------------------------------|--------------------------|

|-14-p-11----------11-14-p-11-|-17-p-14----------14-17-p-14-|-20-p-17-------|-17-p-14--------|
|---------13----13------------|---------16----16------------|---------19----|---------16-----|
|------------14---------------|------------17---------------|------------20-|------------17--|
|-----------------------------|-----------------------------|---------------|----------------|
|-----------------------------|-----------------------------|---------------|----------------|
|-----------------------------|-----------------------------|---------------|----------------|


|---------|
|-15/17~~-|
|---------|
|---------|
|---------|
|---------|



|-17-16-13----13-16-17-p-16-p-13----13-16-17-16-13--^------|
|----------17--------------------17----------------15(17)--|
|----------------------------------------------------------|
|----------------------------------------------------------|
|----------------------------------------------------------|
|----------------------------------------------------------|

   xxxxxxx        xxxxxxxxxxxxxxxxxxxxx        xxxxxxx
|------------------------------------------------------------|
|------------------------------------------------------------|
|-9------10\7-10-9-------------9------10\7-10-9--------------|
|-9------10\7-10-9-------------9------10\7-10-9-------8------|
|-77777778-\5-8--7777777777777-77777778-\5-8--7777777-8------|
|-----------------------------------------------------6------|

   xxxxxx         xxxxxxxxxxxxx xxxxxx
|---------------------------------------------13-12-10-------------------------------------------|
|------------------------------------------------------13-12-10-12-10-9--------------------------|
|-9------10\7-10-9-------------9------10\7-10---------------------------12-10-9-10-9-7-----------|
|-9------10\7-10-9-------------9------10\7-10------------------------------------------10-9-7----|
|-77777778-\5-8--7777777777777-77777778-\5-8--------------------------------------------------7~-|
|------------------------------------------------------------------------------------------------|


|--------------------------------------------------------------------|
|--------------------------------------------------------------------|
|-------------------------9-7-6-h-7-p-6-h-7-p-6----------------------|
|-/4-6-7-/6-7-9-/7-9-11-9-----------------------9-7-6-4-/6-4-3-1-3~~-|
|--------------------------------------------------------------------|
|--------------------------------------------------------------------|

|-----------------------------------------------------------------------|
|-------------------------------------------------------7-/-10-9-7-9~~--|
|--------------------------9-7-6-h-7-p-6-h-7-p-6------------------------|
|-/4-6-7-/6-7-9-/7-9-11-9-----------------------9-7-6-4-----------------|
|-----------------------------------------------------------------------|
|-----------------------------------------------------------------------|
           '
|-------------------------------------------------------------|
|-------------------------------------------------------------|
|-------------------------------------------------------------|
|-/12-11-9-11-9-7-9-7-5-7-6-4-h-6-p-4-3-4-6/-7-6-4-3/4-3------|
|-------------------------------------------------------5-4~~-|
|-------------------------------------------------------------|

|------------------------------------------------------------|
|------------------------------------------------------------|
|------------------------------------------------------------|
|------------------------------------------------------------|
|-/12-11-9-11-9-7-9-7-5-7-6-4-h-6-p-4-3-4-6/-7-6-4-3-1-3-4~~-|
|------------------------------------------------------------|


|-8-p-5-------5-8-p-5-|-12-p-8---------8-10-p-8-|-17-p-12----------12-17-p-12-|
|-------5---5---------|--------10---10----------|---------13----13------------|
|---------5-----------|-----------9-------------|------------14---------------|
|---------------------|-------------------------|-----------------------------|
|---------------------|-------------------------|-----------------------------|
|---------------------|-------------------------|-----------------------------|


|-20-20-17\12-17-p-12-------|-13-p-10----------10-13-p-10-|-17-p-13----------13-17-p-13-|
|---------------------13----|---------10----10------------|---------15----15------------|
|------------------------14-|------------10---------------|------------14---------------|
|---------------------------|-----------------------------|-----------------------------|
|---------------------------|-----------------------------|-----------------------------|
|---------------------------|-----------------------------|-----------------------------|


|-17-p-14----------14-17-p-14-|-20-p-17----------17-20-p-17-|-19-p-16----------16-19-p-16-|
|---------16----16------------|---------19----19------------|---------18----18------------|
|------------17---------------|------------20---------------|------------19---------------|
|-----------------------------|-----------------------------|-----------------------------|
|-----------------------------|-----------------------------|-----------------------------|
|-----------------------------|-----------------------------|-----------------------------|


|-16-p-13----------13-16-p-13-|-13-p-10----------10-13-p-10-|-10-p-7--------7-10-p-7-|
|---------15----15------------|---------12----12------------|--------9----9----------|
|------------16---------------|------------13---------------|----------10------------|
|-----------------------------|-----------------------------|------------------------|
|-----------------------------|-----------------------------|------------------------|
|-----------------------------|-----------------------------|------------------------|


|-12-p-8---------8-13-p-8-12-p-8---------8-12-p-8-|-11-p-8----------8-11-p-8-|
|--------10---10-----------------10---10----------|--------10----10----------|
|-----------9-----------------------9-------------|-----------11-------------|
|-------------------------------------------------|--------------------------|
|-------------------------------------------------|--------------------------|
|-------------------------------------------------|--------------------------|

|-14-p-11----------11-14-p-11-|-17-p-14----------14-17-p-14-|-20-p-17-------|-17-p-14--------|
|---------13----13------------|---------16----16------------|---------19----|---------16-----|
|------------14---------------|------------17---------------|------------20-|------------17--|
|-----------------------------|-----------------------------|---------------|----------------|
|-----------------------------|-----------------------------|---------------|----------------|
|-----------------------------|-----------------------------|---------------|----------------|



|---------|
|-15/17~~-|
|---------|
|---------|
|---------|
|---------|


|--------------------------------------------7-h-8-p-7-h-8-p-7-|
|------------------------9-h-10-p-9-h-10-p-9-------------------|
|-10-h-11-p-10-h-11-p-10---------------------------------------|
|--------------------------------------------------------------|
|--------------------------------------------------------------|
|--------------------------------------------------------------|

   xxxxxxx        xxxxxxxxxxxxxxxxxxxxx        xxxxxxx
|------------------------------------------------------------|
|------------------------------------------------------------|
|-9------10\7-10-9-------------9------10\7-10-9--------------|
|-9------10\7-10-9-------------9------10\7-10-9-------8------|
|-77777778-\5-8--7777777777777-77777778-\5-8--7777777-8------|
|-----------------------------------------------------6------|

   xxxxxx         xxxxxxxxxxxxx xxxxxx
|---------------------------------------------------------|
|---------------------------------------------------------|
|-9------10\7-10-9-------------9------10\7-10-9\----------|
|-9------10\7-10-9-------------9------10\7-10-9\----------|
|-77777778-\5-8--7777777777777-77777778-\5-8--7\----------|
|---------------------------------------------------------|

|--------------------------------------------------------------------|
|--------------------------------------------------------------------|
|-------------------------9-7-6-h-7-p-6-h-7-p-6----------------------|
|-/4-6-7-/6-7-9-/7-9-11-9-----------------------9-7-6-4-/6-4-3-1-3~~-|
|--------------------------------------------------------------------|
|--------------------------------------------------------------------|

|----------------------------------------------------------------------------|
|---------------------------------------------------------10-/13--12-10-12~~-|
|---------------------12-10-9-h-10-p-9-h-10-p-9------------------------------|
|-/7-9-10-/9-10-12-10---------------------------12-10-9-7--------------------|
|----------------------------------------------------------------------------|
|----------------------------------------------------------------------------|
             '
|--------------------------------------------------------------------|
|--------------------------------------------------------------------|
|--------------------------------------------------------------------|
|-/15-14-12-14-12-10-12-10-8-10-9-7-h-9-p7-6-7-9-/-10-9-7-/7-6-------|
|--------------------------------------------------------------8-7~~-|
|--------------------------------------------------------------------|

|-------------------------------------------------------------------|
|-------------------------------------------------------------------|
|-------------------------------------------------------------------|
|-/15-14-12-14-12-10-12-10-8-10-9-7-h-9-p7-6-7-9-/-10-9-7-6-4-6-7~~-|
|-------------------------------------------------------------------|
|-------------------------------------------------------------------|

Rápido Rápido, si esto es tocado muy rápido se escuchará igual, creanme

|-----------------------|-------------------------------------|----------------------------|
|-12-10-9-10-9-10-12-10-|-12-13-12-13-15-13-12-13-12-13-15-13-|-15-17-15-17-18-17-15-17-15-|
|-----------------------|-------------------------------------|----------------------------|
|-----------------------|-------------------------------------|----------------------------|
|-----------------------|-------------------------------------|----------------------------|
|-----------------------|-------------------------------------|----------------------------|

|----------------------------|----------------------------|-----------------------|
|-13-15-13-15-17-15-13-15-13-|-12-13-12-13-15-13-12-13-12-|-12-10-9-10-9-10-12-10-|
|----------------------------|----------------------------|-----------------------|
|----------------------------|----------------------------|-----------------------|
|----------------------------|----------------------------|-----------------------|
|----------------------------|----------------------------|-----------------------|



|-------------------------------------|----------------------------|
|-12-13-12-13-15-13-12-13-12-13-15-13-|-15-17-15-17-18-17-15-17-15-|
|-------------------------------------|----------------------------|
|-------------------------------------|----------------------------|
|-------------------------------------|----------------------------|
|-------------------------------------|----------------------------|

|----------|----------|----------|-------------------|
|-17-15-13-|-15-13-12-|-13-12-10-|-9-10-12-10-9-10~~-|
|----------|----------|----------|-------------------|
|----------|----------|----------|-------------------|
|----------|----------|----------|-------------------|
|----------|----------|----------|-------------------|

Esto también va muy rápido

|-12-9-10-12-10-9-12-9-10-12-10-9-|-15-12-13-15-13-12-15-12-13-15-13-12-|
|---------------------------------|-------------------------------------|
|---------------------------------|-------------------------------------|
|---------------------------------|-------------------------------------|
|---------------------------------|-------------------------------------|
|---------------------------------|-------------------------------------|

|-13-10-12-13-12-10-13-10-12-13-12-10-|-17-13-15-17-15-13-17-13-15-17-15-13-|
|-------------------------------------|-------------------------------------|
|-------------------------------------|-------------------------------------|
|-------------------------------------|-------------------------------------|
|-------------------------------------|-------------------------------------|
|-------------------------------------|-------------------------------------|

|-10-7-8-10-8-7-10-7-8-10-8-7-|-13-10-12-13-12-10-13-10-12-13-12-10--|
|-----------------------------|--------------------------------------|
|-----------------------------|--------------------------------------|
|-----------------------------|--------------------------------------|
|-----------------------------|--------------------------------------|
|-----------------------------|--------------------------------------|


|-12-8-10-12-10-8-12-8-10-12-10-8-|-15-12-13-15-13-12-15-12-13-15-13-12-|
|---------------------------------|-------------------------------------|
|---------------------------------|-------------------------------------|
|---------------------------------|-------------------------------------|
|---------------------------------|-------------------------------------|
|---------------------------------|-------------------------------------|

x8
|-8-5-7-8-7-5-|-8-5-7-8-7-5-|-8-5-7-8-7-5-|-8-5-7-8-7-5-|
|-------------|-------------|-------------|-------------|
|-------------|-------------|-------------|-------------|
|-------------|-------------|-------------|-------------|
|-------------|-------------|-------------|-------------|
|-------------|-------------|-------------|-------------|


|-8-5-7-8-7-5-|-8-5-7-8-7-5-|-8-5-7-8-7-5-|-8-5-7-8-7-5-|
|-------------|-------------|-------------|-------------|
|-------------|-------------|-------------|-------------|
|-------------|-------------|-------------|-------------|
|-------------|-------------|-------------|-------------|
|-------------|-------------|-------------|-------------|


|-00-8-00-5-00-10/12-00-8-00-5-00-10/12-00-7-00-4-00-10/12-00-7-0~~-|
|-------------------------------------------------------------------|
|-------------------------------------------------------------------|
|-------------------------------------------------------------------|
|-------------------------------------------------------------------|
|-------------------------------------------------------------------|

|-/12-9------------------------------/10-7---------------------------|
|-------10-10\8~~-8-h-10-8\6/8-6\5-6-------8-8\6~~-6-h-8-6\5/6-5\3-5-|
|--------------------------------------------------------------------|
|--------------------------------------------------------------------|
|--------------------------------------------------------------------|
|--------------------------------------------------------------------|

                                               ^
|-/11-14-/17-20-20-p-17--------------12-13-15-15(17)-12-h-15-p-12----|
|-----------------------18~-12-13-15---------------------------------|
|--------------------------------------------------------------------|
|--------------------------------------------------------------------|
|--------------------------------------------------------------------|
|--------------------------------------------------------------------|
                  ^
|----12------------15--------------------|
|-15----15-12-15(17)---------------------|
|---------------------10---10-10-9-7-----|
|---------------------10---10-10-9-7-5~~-|
|---------------------10-x-10-10-9-7-----|
|----------------------------------------|

|-------------------------------------------------------------------------------------|
|-------------------------------------------------------------------------------------|
|-------------------------------------------------------------------------------------|
|-2-----------------------------------------------------------------------------------|
|-2-----------------------------------------------------------------------------------|
|-0------------0-4-5-7-0-0-0-0-0-0--0-7-8-10-0-0-0-0-0-0--0-10-12-13-12-10-8-10-8-7-0-|

|-------------------------------------------------------------------------------------|
|-------------------------------------------------------------------------------------|
|-------------------------------------------------------------------------------------|
|-------------------------------------------------------------------------------------|
|-------------------------------------------------------------------------------------|
|-0-0-0-0-0-0--0-4-5-7-0-0-0-0-0-0--0-7-8-10-0-0-0-0-0-0--0-10-12-13-12-10-8-10-8-7-0-|

|-------------------------------------------------------------------------------------|
|-------------------------------------------------------------------------------------|
|-------------------------------------------------------------------------------------|
|-------------------------------------------------------------------------------------|
|-------------------------------------------------------------------------------------|
|-0-0-0-0-0-0--0-4-5-7-0-0-0-0-0-0--0-7-8-10-0-0-0-0-0-0--0-10-12-13-12-10-8-10-8-7-0-|

|-------------------------------------------------------------------------------------|
|-------------------------------------------------------------------------------------|
|-------------------------------------------------------------------------------------|
|-------------------------------------------------------------------------------------|
|-------------------------------------------------------------------------------------|
|-0-0-0-0-0-0--0-4-5-7-0-0-0-0-0-0--0-7-8-10-0-0-0-0-0-0--0-10-12-13-12-10-8-10-8-7---|



|-----|
|-----|
|--6\-|
|--6\-|
|--4\-|
|-----|

|--------------------------------------------------------------------|
|--------------------------------------------------------------------|
|-------------------------9-7-6-h-7-p-6-h-7-p-6----------------------|
|-/4-6-7-/6-7-9-/7-9-11-9-----------------------9-7-6-4-/6-4-3-1-3~~-|
|--------------------------------------------------------------------|
|--------------------------------------------------------------------|

|-----------------------------------------------------------------------|
|-------------------------------------------------------7-/-10-9-7-9~~--|
|--------------------------9-7-6-h-7-p-6-h-7-p-6------------------------|
|-/4-6-7-/6-7-9-/7-9-11-9-----------------------9-7-6-4-----------------|
|-----------------------------------------------------------------------|
|-----------------------------------------------------------------------|
           '
|-------------------------------------------------------------|
|-------------------------------------------------------------|
|-------------------------------------------------------------|
|-/12-11-9-11-9-7-9-7-5-7-6-4-h-6-p-4-3-4-6/-7-6-4-3/4-3------|
|-------------------------------------------------------5-4~~-|
|-------------------------------------------------------------|

|------------------------------------------------------------|
|------------------------------------------------------------|
|------------------------------------------------------------|
|------------------------------------------------------------|
|-/12-11-9-11-9-7-9-7-5-7-6-4-h-6-p-4-3-4-6/-7-6-4-3-1-3-4~~-|
|------------------------------------------------------------|


|-8-p-5-------5-8-p-5-|-12-p-8---------8-10-p-8-|-17-p-12----------12-17-p-12-|
|-------5---5---------|--------10---10----------|---------13----13------------|
|---------5-----------|-----------9-------------|------------14---------------|
|---------------------|-------------------------|-----------------------------|
|---------------------|-------------------------|-----------------------------|
|---------------------|-------------------------|-----------------------------|


|-20-20-17\12-17-p-12-------|-13-p-10----------10-13-p-10-|-17-p-13----------13-17-p-13|
|---------------------13----|---------10----10------------|---------15----15-----------|
|------------------------14-|------------10---------------|------------14---------------
|---------------------------|-----------------------------|----------------------------|
|---------------------------|-----------------------------|----------------------------|
|---------------------------|-----------------------------|----------------------------|


|-17-p-14----------14-17-p-14-|-20-p-17----------17-20-p-17-|-19-p-16----------16-19-p-16-|
|---------16----16------------|---------19----19------------|---------18----18------------|
|------------17---------------|------------20---------------|------------19---------------|
|-----------------------------|-----------------------------|-----------------------------|
|-----------------------------|-----------------------------|-----------------------------|
|-----------------------------|-----------------------------|-----------------------------|


|-16-p-13----------13-16-p-13-|-13-p-10----------10-13-p-10-|-10-p-7--------7-10-p-7-|
|---------15----15------------|---------12----12------------|--------9----9----------|
|------------16---------------|------------13---------------|----------10------------|
|-----------------------------|-----------------------------|------------------------|
|-----------------------------|-----------------------------|------------------------|
|-----------------------------|-----------------------------|------------------------|


|-12-p-8---------8-13-p-8-12-p-8---------8-12-p-8-|-11-p-8----------8-11p8-|
|--------10---10-----------------10---10----------|--------10----10--------|
|-----------9-----------------------9-------------|-----------11-----------|
|-------------------------------------------------|------------------------|
|-------------------------------------------------|------------------------|
|-------------------------------------------------|------------------------|


|-14-p-11----------11-14-p-11-|-17-p-14----------14-17-p-14-|-20-p-17----------20-|
|---------13----13------------|---------16----16------------|---------19----19----|
|------------14---------------|------------17---------------|------------20-------|
|-----------------------------|-----------------------------|---------------------|
|-----------------------------|-----------------------------|---------------------|
|-----------------------------|-----------------------------|---------------------|

|-20-p-17-20-p-17---------17-20-p-17-|-19-p-16----16-19-p-16-19-p-16-|
|----------------19----19------------|---------17--------------------|
|-------------------20---------------|-------------------------------|
|------------------------------------|-------------------------------|
|------------------------------------|-------------------------------|
|------------------------------------|-------------------------------|

|----16-19-p-16----16-19-p-16----16-19-p-16-|
|-17------------17------------17------------|
|-------------------------------------------|
|-------------------------------------------|
|-------------------------------------------|
|-------------------------------------------|

|-5--4--5--4--\----------|
|-5--5--5--5--\----------|
|-5--4--5--4--\----------|
|-7--6--7--6--\----------|
|------------------------|
|----------------5~~~~~~-|





Comments


Popular Rata Blanca tabs & chords
Pastel De Rockas Chords
Abrazando El Rockn Roll Tabs
Aun Estas En Mis Sueos Tabs
La Cancion Del Guerrero Tabs
Mujer Amante Tabs
Mujer Amante 6 Tabs
Por Que Es Tan Dificil Amar Tabs
Porque Es Tan Dificil Amar Tabs
Volviendo A Casa 1 Tabs
Amo Del Camino Ukulele


Song lyrics



↑ Back to top | Tablatures and chords are parodies/interpretations of the original songs. You may use it for private study, scholarship, research or language learning purposes only
© 2014 AZChords.com Contact us | Privacy policy | DMCA | Add/correct tabs | Request tabs | Top 50 tabs