>
 >
Hombre De Hielo

Hombre De Hielo Guitar Tabs

Rata Blanca - Hombre De Hielo chords, tabs, tablatures, lyrics

Guitar lessons | Add/correct | Request | Top 50 tabs Artists:  A B C D E F G H I J K L M N O P Q R S T U V W X Y Z 0-9

Hombre De Hielo Guitar Tabs – Rata Blanca

CD, Sheet music, Poster

Do you like Hombre De Hielo? Share with your friends now
Tabs

HOMBRE DE HIELO
As recorded by Rata Blanca
(From the 1991 Album GUERRERO DEL AROCIRIS)

	

Words by Adrian Barilari Music by Walter Giardino

G5
3 5 5 x x x
	
C5
x 3 5 5 x x
	
D5
x 5 7 7 x x
	
A5
5 7 7 x x x

E5
x 7 9 9 x x
	
G5X
x 10 12 12 x x
	
F#5
x 9 11 11 x x
	
B5
7 9 9 x x x

F#5II
2 4 x x x x

Gtr I (E A D G B E) - 'Gtr 1'
Gtr II (E A D G B E) - 'Gtr 2'
Gtr III (E A D G B E) - 'Gtr 3'

  Fast Rock Q=148
  C5                                       A5 G5
 4/4
  Gtr I                                    Gtrs I, II
  |-3-| |-3-| |-3-| |-3-|   |-3-| |--3---|
  E E E E E E E E E E E E   E E E E E S  S Q  Q
|-------------------------|----------------------||
|-8-8-8-8-8-8-8-8-8-8-8-8-|-8-8-8-8-8-8----------||
|-5-5-5-5-5-5-5-5-5-5-5-5-|-5-5-5-5-5-5-!x-------||
|-------------------------|-------------!x-7--5--||
|-------------------------|-------------!x-7--5--||
|-------------------------|----------------5--3--||


 Intro
  $
  E5        D5                       E5                   D5
  PM|                  PM    PM                 PM|                  PM
  |3| |--3--|       |3-|   |3| |--3--|          |3| |--3--|       |3-|
  Q E Q  a  E +Q   +Q  E   Q E Q  a  E +H       Q E Q  a  E +Q   +Q  E
|------------------------|--------------------|------------------------|
|------------------------|--------------------|------------------------|
|-----9-(9)s7-(7)--(7)---|-7---7-(7)s9-(9)----|-----9-(9)s7-(7)--(7)---|
|-----9-(9)s7-(7)--(7)---|-7---7-(7)s9-(9)----|-----9-(9)s7-(7)--(7)---|
|-2---7-(7)s5-(5)--(5)-5-|-5-5-5-(5)s7-(7)----|-----7-(7)s5-(5)--(5)---|
|-0-0--------------------|--------------------|-0-0------------------0-|


        A5         E5        D5                       E5         C5
  PM--|            PM|                  PM    PM
  |3| |3|          |3| |--3--|       |3-|   |3| |--3--|
  Q E Q E +H       Q E Q  a  E +Q   +Q  E   Q E Q  a  E +Q   +E  E
|----------------|------------------------|-------------------------|
|----------------|------------------------|----------------------8--|
|-------2-(2)----|-----9-(9)s7-(7)--(7)---|-7---7-(7)s9-(9)--(9)-5--|
|-------2-(2)----|-----9-(9)s7-(7)--(7)---|-7---7-(7)s9-(9)--(9)-5--|
|-------0-(0)----|-2---7-(7)s5-(5)--(5)-5-|-5-5-5-(5)s7-(7)--(7)----|
|-3-0-3----------|-0-0--------------------|-------------------------|


                                           Verse 1
                                  To Coda   $$
         D7            C5          A5 G5    E5                      D5
         |-3-| |-3-|   |-3-| |-3-|                               |-3-|
  +H     E E E E E E   E E E E E E Q  Q     W          +H.      +Q   E
|--------------------|-------------------||----------|-----------------|
|-(8)----7-7-7-7-7-7-|-8-8-8-8-8-8-------||----------|-----------------|
|-(5)----5-5-5-5-5-5-|-5-5-5-5-5-5-------||-9--------|-(9)------(9)-\7-|
|-(5)----------------|-------------7--5--||-9--------|-(9)------(9)-\7-|
|--------------------|-------------7--5--||-7--------|-(7)------(7)-\5-|
|--------------------|-------------5--3--||-0--------|-(0)------(0)----|


                                 A5               D5         A5 G5E5
                           |--3--|             |3-|             |3|
    +W           +H.      +Q   a E   +H.      +Q  E   +H     Q  Q E
||-------------|-------------------|----------------|---------------|
||o------------|-------------------|----------------|---------------|
||--(7)--------|-(7)------(7)-!x---|--------------7-|-(7)-----------|
||--(7)--------|-(7)------(7)-!x-7-|-(7)------(7)-7-|-(7)----7----2-|
||o-(5)--------|-(5)------(5)-!x-7-|-(7)------(7)-5-|-(5)----7--5-2-|
||-------------|-----------------5-|-(5)------(5)---|--------5--3-0-|


               1.
                       To Dbl. Coda
                                     E5                           D5
                       PM----------------|
                       |-3-| |-3-|   |-3-|                     |-3-|
  +H     H       H     E E E E E E   E E E H.        +H.      +Q   E
|-------------|--------------------|---------------|-------------------||
|-------------|--------------------|---------------|------------------o||
|-------------|--------------------|-------9-------|-(9)------(9)-\7---||
|-(2)----2----|--------------------|-------9-------|-(9)------(9)-\7---||
|-(2)----2----|--------------------|-------7-------|-(7)------(7)-\5--o||
|-(0)----0----|-12\----0-3-5-6-5-3-|-0-0-0---------|-------------------||


               Chorus
  2.
  E5            A5         C5              E5         D5
       PM--|
       |-3-|                   |3-|                 |3|
  H    Q Q Q    W          Q  +Q  E H      Q  Q  Q  Q E
|------------||----------|---------------|---------------|
|------------||----------|---------------|------------3--|
|------------||-2--------|-5--(5)-5-5----|----4--4--4-2--|
|-2----------||-2--------|-5--(5)-5-5----|----2--2--2-0--|
|-2----------||-0--------|-3--(3)-3-3----|-2--2--2--2----|
|-0----6-5-3-||----------|---------------|-0--0--0--0----|


                 C5         G5   C5     D5          N.C.(A(G5)
                            Gtr II
   W             W          H    H       W           W
                            |    |       |
                            /    /       /

                            Gtr I                   Gtrs I, II, III
  +Q   H.        W          H    H       W           H    H
|--------------|----------|-----------|-----------|------------|
|-(3)--3-------|----------|------8----|-10--------|------------|
|-(2)--2-------|-5--------|------5----|--7--------|------------|
|-(0)--0-------|-5--------|-5----5----|--7--------|-/7----5----|
|--------------|-3--------|-5---------|-----------|------------|
|--------------|----------|-3---------|-----------|------------|


                                        D.S. al Coda
  E5   C5     B5   G5     C5D5              G5A5
  Gtrs I, III
  H    H      H    H      W                 W
  |    |      |    |
  o    o      o    o

  Gtr II                  Gtrs I, II
                          |3|               |3|
  H    H      H    H      Q E +H.       a   Q E +H.
|-----------|-----------|-----------------|-------------||
|-----------|-----------|-----------------|-------------||
|-----------|-----------|-5-7-(7)---------|-------------||
|-9----5----|-4---------|-5-7-(7)------!x-|-5-7-(7)-----||
|-7----3----|-2----5----|-3-5-(5)------!x-|-5-7-(7)-----||
|-----------|------3----|--------------!x-|-3-5-(5)-----||


 Verse 2
  &
  E5                      D5
                       |-3-|
  W          +H.      +Q   E   +W
|----------|-----------------|------------|
|----------|-----------------|------------|
|----------|--------------\7-|-(7)--------|
|-2--------|-(2)------(2)-\7-|-(7)--------|
|-2--------|-(2)------(2)-\5-|-(5)--------|
|-0--------|-(0)------(0)----|------------|


                  A5               D5
            |--3--|             |3-|
  +H.      +Q   a E   +H.      +Q  E
|-------------------|------------------|
|-------------------|------------------|
|-(7)------(7)-!x---|--------------7---|
|-(7)------(7)-!x-7-|-(7)------(7)-7---|
|-(5)------(5)-!x-7-|-(7)------(7)-5---|
|-----------------5-|-(5)------(5)-----|


         A5 A5E5
            |3|
  +H     Q  Q E   +W
|---------------|----------------------------------------|
|---------------|----------------------------------------|
|-(7)-----------|----------------------------------------|
|-(7)----7----2-|-(2)------------------------------------|
|-(5)----7--5-2-|-(2)------------------------------------|
|--------5--3-0-|-(0)------------------------------------|
|
|                 Gtr III
|                             \0.5___/   \0.5___/   \0.5
|                         |----3-----|   |----3-----|
|  W               H      E  +E     +E  +E     +E  +E
|---------------|----------------------------------------|
|---------------|----------------------------------------|
|---------------|--------[7]-(7)----(7)-(7)----(7)-(7)---|
|---------------|----------------------------------------|
|---------------|----------------------------------------|
|---------------|----------------------------------------|


                                                            E5
                                  PM----------------------|
                                  |-3--| |-3-|    |---3---|
  +H                              E  E E E E E    E    E  E H.
|----------------------------------------------|------------------|
|----------------------------------------------|------------------|
|----------------------------------------------|------------9-----|
|-(2)------------------------------------------|------------9-----|
|-(2)------------------------------------------|------------7-----|
|-(0)-----------------------------0--3-5-6-5-3-|--0----0--0-------|
|
|  |   \1___/   \1___/   \1___/                   \1___|
|  |---3----|   |---3----|                        |---3---|
|  E  +E   +E  +E   +E  +E    a  +H              +E   +E  E H.
|----------------------------------------------|------------------|
|-[7]-(7)--(7)-(7)--(7)-(7)--(7)-(7)-----------|-(7)--(7)---------|
|--x-------------------------------------------|------------------|
|----------------------------------------------|------------------|
|----------------------------------------------|------------------|
|----------------------------------------------|------------------|


               D5                  Dsus4        D          A5              D5
               Gtr II
            |-3-|                                       |3-|
   H.       Q   E   +W                 +H.             +Q  E   W
                |    |                  |               |
                /    /                  /               /

               Gtr I                                       Gtrs I, II
            |-3-|             |-3--|         |3-|       |3-|            |3-|
  +H.      +Q   E   +H.      +Q  a E   +Q   +Q  E +Q    Q  E   H.      +Q  E
|-----------------|------------------|-----------------------|---------------|
|-----------------|----------------8-|-(8)--(8)-7-(7)--------|---------------|
|-(9)------(9)-\7-|-(7)------(7)---7-|-(7)--(7)-7-(7)--(0)---|-------------7-|
|-(9)------(9)-\7-|-(7)------(7)-x---|-----------------(0)-7-|-7-------(7)-7-|
|-(7)------(7)-\5-|-(5)------(5)-----|---------------------7-|-7-------(7)-5-|
|-----------------|------------------|---------------------5-|-5-------(5)---|


                                              Chorus
         A5 G5E5                               A5
                                      PM--|
            |3|                       |-3-|
  +H     Q  Q E   +W           +H     Q Q Q    W
|---------------|------------|--------------||------|
|---------------|------------|--------------||------|
|-(7)-----------|------------|--------------||-2----|
|-(7)----7------|------------|--------------||-2----|
|-(5)----7--5-2-|-(2)--------|-(2)----------||-0----|
|--------5--3-0-|-(0)--------|-(0)----6-5-3-||------|


  C5                E5          D5               C5         G5   C5
                                                            Gtr II
  W                 W                W           W          H    H
                                                            |    |
                                                            /    /

                                                            Gtr I
      |3-|                   |3-|
  Q  +Q  E +H       H.      +Q  E   +W           W          H    H
|-----------------|---------------|------------|----------|-----------|
|--------5-(5)----|-------------3-|-(3)--------|----------|------8----|
|-5--(5)-5-(5)----|-------------2-|-(2)--------|-5--------|------x----|
|-5--(5)----------|-2-------(2)-0-|-(0)--------|-5--------|-5----5----|
|-3--(3)----------|-2-------(2)---|------------|-3--------|-5---------|
|-----------------|-0-------(0)---|------------|----------|-3---------|


  D5          N.C.(A5)(G5)   E5   C5     B5   G5     C5D5
                             Gtrs I, III
   W           W             H    H      H    H      W
   |                         |    |      |    |
   /                         o    o      o    o

              Gtrs I, II, IIIGtr II                  Gtrs I, II
               |3|                                   |3|
   W           Q E Q  H      H    H      H    H      Q E +H.
|-----------|--------------|-----------|-----------|------------|
|-10--------|--------------|-----------|-----------|------------|
|--x--------|--------------|-----------|-----------|-5-7-(7)----|
|--7--------|-/7-7-7--5----|-9----5----|-4---------|-5-7-(7)----|
|-----------|--------------|-7----3----|-2----5----|-3-5-(5)----|
|-----------|--------------|-----------|------3----|------------|


                      Guitar Solo
  G5 A5                E5                           D5
  Gtr III
                                \0.5/   \0.5/
                                                     |--3--|
  H.            Q       Q       E       E            Q     E  a      +S   S  E
|-------------------||-----------------------------------------------------------|
|-------------------||---------12-------------------------12---------------------|
|-------------------||-14b16----------(12)----------14b16----14pb16r(14)p12-12---|
|-------------------||-----------------12-----------------------------------12---|
|-------------h12\--||-------------------------------------------------------x---|
|-------------------||-----------------------------------------------------------|
|
| Gtrs I, II
|                       PM---|                                                 PM
| |3-|                  |-3--|  |--------3--------|                   |---3----|
| Q  E +H.              Q    E  Q              a  E +Q               +Q        E
|-------------------||-----------------------------------------------------------|
|-------------------||-----------------------------------------------------------|
|-------------------||----------9-------------(9)s7-(7)--------------(7)---------|
|-5--7-(7)----------||----------9-------------(9)s7-(7)--------------(7)---------|
|-5--7-(7)----------||----------7-------------(7)s5-(5)--------------(5)-------5-|
|-3--5-(5)----------||--0----0---------------------------------------------------|


                                      E5
                                         ~~~~~~~~~~
   |--3--|                         |--3--|    |---3---|
   Q     E  S  S  E        a      +Q    +E   +E    E  E
|-------------------------------------------------------------|
|-------------------------------------------------------------|
|-14b16-14-14-14-12-------14b16==(14)--(14)-(14)rp12-14b16====|
|-------------------------------------------------------------|
|-------------------------------------------------------------|
|-------------------------------------------------------------|
|
|        PM
|  |--3--|  |-----3-----|
|  Q     E  Q        a  E         +H
|-------------------------------------------------------------|
|-------------------------------------------------------------|
|--7--------7-------(7)s9---------(9)-------------------------|
|--7--------7-------(7)s9---------(9)-------------------------|
|--5-----5--5-------(5)s7---------(7)-------------------------|
|-------------------------------------------------------------|


  E5                       D5
                                                  /1____\2.25________
                  |----3----|                     |------3-------|
    E    E        E  E      E  S     S      S  S  E    +E       +E
|--12---------------------------------------------------------------|
|----------------12--------12---------------------------------------|
|-(14)r-14pb16------14--------14b16-14pb16-14-12h14---(14)-----(14)-|
|-------------------------------------------------------------------|
|-------------------------------------------------------------------|
|-------------------------------------------------------------------|
|
|   PM---------|                                                 PM
|   |----3-----|  |----3----|                     |------3-------|
|   Q          E  Q     a   E +Q                 +Q              E
|-------------------------------------------------------------------|
|-------------------------------------------------------------------|
|-----------------9----(9)s=7-(7)----------------(7)----------------|
|-----------------9----(9)s=7-(7)----------------(7)----------------|
|-----------------7----(7)s=5-(5)----------------(5)-------------5--|
|---0----------0----------------------------------------------------|


                  E5
  |
                       ~~~~
     |---3---|  |3-|
  a  Q       E  Q  E  +Q    Q
|-------------------------------|
|-------------------------------|
|---12b12.5-------12-(12)-------|
|-x---------14-12----------14\--|
|-x----------x------------------|
|-x-----------------------------|
|
|            PM|
|    |---3---|  |3-|
|    Q       E  Q  E  +H
|-------------------------------|
|-------------------------------|
|----7-------------9--(9)-------|
|----7-------------9--(9)-------|
|----5-------5--5--7--(7)-------|
|-------------------------------|


  E5                               D5
    |3|                    |3-|
  a Q E    +E   E          Q  E    +E  E
|-------------------------------------------|
|-------------------------------------------|
|---7-9b11r(9)p=7\---------7--9b11r(9)-7\---|
|-x------------(7)\-------------------------|
|-x-----------------------------------------|
|-------------------------------------------|
|
|   PM|                                   PM
|   |3|     |-----3-----|           |--3--|
|   Q E     Q        a  E +Q       +Q     E
|-------------------------------------------|
|-------------------------------------------|
|-----------9-------(9)s7-(7)------(7)------|
|-----------9-------(9)s7-(7)------(7)------|
|-----------7-------(7)s5-(5)------(5)----5-|
|---0-0-------------------------------------|


              E5
        ~
   |3-| |--3--|  |--3--|       |3-|
   Q  E Q     E  E  E  E      +Q  E
|-----------------------------------|
|-[8]-5-5---------------------------|
|-------------7-------------------x-|
|----------------8--7-[5]b5.5-(5)-x-|
|-----------------------------------|
|-----------------------------------|
|
|     PM
|  |3-| |--3--|
|  Q  E Q  a  E +H
|-----------------------------------|
|-----------------------------------|
|--7----7-(7)s9-(9)-----------------|
|--7----7-(7)s9-(9)-----------------|
|--5--5-5-(5)s7-(7)-----------------|
|-----------------------------------|


  E5                D5
                               \0.5/  \1.5_____
   |--3---| |---3---|  |-3--|  |--3---|
   Q      E E E     E  E  E E  E     +Q
|-[3]b3.5-0---0-------------------------------|
|-----------3-------0-----0-------------------|
|----------------------3----2-[0]----(0)------|
|---------------------------------------------|
|---------------------------------------------|
|---------------------------------------------|
|
|  PM-----|                                 PM-
|  |--3---| |---3---|          |-----3------|
|  Q      E Q    a  E +Q      +Q            E
|---------------------------------------------|
|---------------------------------------------|
|-----------9---(9)s7-(7)-----(7)-------------|
|-----------9---(9)s7-(7)-----(7)-------------|
|-----------7---(7)s5-(5)-----(5)-------------|
|--0------0---------------------------------0-|


                        E5
   /   /2_______\1___|  \2.5_______|
   |---3----|   |---3---|
  +E  +E   +E   E   +E  E     +Q   S   S   S  S
|-----------------------------------------------|
|----------------------------------0------------|
|-(0)-(0)--(0)-(0)--(0)-0-----(0)--0-(15)p14p12-|
|----------------------------------0------------|
|-----------------------------------------------|
|-----------------------------------------------|
|
|--------------|
|  |---3----|   |---3---|
|  Q        E   Q       E     +H
|-----------------------------------------------|
|-----------------------------------------------|
|-----------------------------------------------|
|-----------------------2-----(2)---------------|
|-----------------------2-----(2)---------------|
|--3--------0---3-------0-----(0)---------------|


  E5                 D5
  Gtr III
   |-----3------|  |3-|     |---3----|
   E     E      E  E  Q     E  E     E  E  E
|-----------------12-------12----------12-----|
|--------------12-------------------12----12\-|
|-14b16-14pb16-------14b16----14b16-----------|
|---------------------------------------------|
|---------------------------------------------|
|---------------------------------------------|


                 E5
               PM
      |--3--|                                   |------3------|
   a  E  E  E  S  E.      S    S    S    S      E  E     +S   S
|-------10--------------------12--------------------------------|
|-10h12-10-10------------12--------12---------------------------|
|-10h12----12-12-14b16==(14)-(14)-(14)r-14pb16-14-14b16r(14)p12-|
|-------------12------------------------------------------------|
|---------------------------------------------------------------|
|---------------------------------------------------------------|


  E5               D5
   |--3---|   |--3--|     |--3--|
   Q     +E   E  E  E     E  E  E  E  E
|-15b16-(15)-15p12-12----12----12-------|
|------------------15b17----15----12-15-|
|---------------------------------12-14-|
|---------------------------------------|
|---------------------------------------|
|---------------------------------------|


                    E5
                                    ~~~~
   |--3--|  |---3----|  |--3---|    |--3---|
   E  E  E  S  S  E  E  Q      E   +E   E  E
|--------------------------------------------|
|-------12-15-14-12-12-----------------------|
|-14-12-------------12-14b16-[12]-(12)-------|
|-14-12--------------------------------14-12-|
|--------------------------------------------|
|--------------------------------------------|


  E5                 D5
   |---3---|   |--3---|  |----3-----|  |------3------|
   Q       E  +E   E  E  Q       S  S  S  S  +E   S  S
|------------------------------------------------------|
|------------------------------------------------------|
|-12b12.5---------------12b12.5h15p12h14p12-(12)-------|
|---------14-(14)-12-----------------------------12h14-|
|--------------------14--------------------------------|
|------------------------------------------------------|


                          E5
                                                 ~~~~
   |------5-------|  |3-|
   S   S    S  S  S  S  E  S     +S   E  E      +Q
|------------------------------------12--------------|
|----(12)-------------------------------15b17==(15)--|
|-14p=12------15p12----12-14b16-(14)-----------------|
|---------h14-------14-------------------------------|
|----------------------------------------------------|
|----------------------------------------------------|


  E5              D5
          |3-|      |--3--|       |-3--|
   +Q     E  Q      Q     E      +E    Q
|-----------17b19r=17b19-17b19==(17)r-17b19-|
|-(15)r\------------------------------------|
|-------------------------------------------|
|-------------------------------------------|
|-------------------------------------------|
|-------------------------------------------|


                    E5
            |-----3-----|             |-----3-----|
   Q       +E   +E   S  S      +Q    +E   +E   S  S
|-17b19===(17)r(17)p15-17b19==(17)--(17)r(17)p15-17b19==||
|-------------------------------------------------------||
|-------------------------------------------------------||
|-------------------------------------------------------||
|-------------------------------------------------------||
|-------------------------------------------------------||


 Keyboards Solo
  N.C.(Bm)
  Gtr III
             ~~~~~~~~~~~~
   +Q       +Q       +Q       +Q
|-(17)-----(17)-----(17)-----(17)r\-----|
|---------------------------------------|
|---------------------------------------|
|---------------------------------------|
|---------------------------------------|
|---------------------------------------|
|
| Gtrs I, II
|   PM-----------------------------------
|   |-3--|   |-3--|   |-3--|   |--3---|
|   E  E E   E  E E   E  E E   E    E E
|---------------------------------------|
|---------------------------------------|
|---------------------------------------|
|---------------------------------------|
|---------------------------------------|
|---7--7-7---7--7-7---7--7-7---7----7-7-|


  W                         W
|-------------------------|-------------------------|
|-------------------------|-------------------------|
|-------------------------|-------------------------|
|-------------------------|-------------------------|
|-------------------------|-------------------------|
|-------------------------|-------------------------|
|
|-------------------------------------------------|
| |-3-| |-3-| |-3-| |-3-|   |-3-| |-3-| |-3-| |-3-|
| E E E E E E E E E E E E   E E E E E E E E E E E E
|-------------------------|-------------------------|
|-------------------------|-------------------------|
|-------------------------|-------------------------|
|-------------------------|-------------------------|
|-----------------------5-|-------------------------|
|-7-7-7-7-7-7-7-7-7-7-7---|-7-7-7-7-7-7-7-7-7-7-7-7-|


  N.C.
  Gtrs I, II
  PM---------------------------------------------------
  |-3-| |-3-| |-3-| |-3-|     |-3-| |-3-| |-3-| |-3-|
  E E E E E E E E E E E E     E E E E E E E E E E E E
|-------------------------||--------------------------|
|-------------------------||o-------------------------|
|-------------------------||--------------------------|
|-------------------------||--------------------------|
|-------------------5---5-||o-------------------------|
|-7-7-7-7-7-7-7-7-7---7---||--7-7-7-7-7-7-7-7-7-7-7-7-|


 -----------------------|
  |-3-| |-3-| |-3-| |-3-|
  E E E E E E E E E E E E
|--------------------------||
|-------------------------o||
|--------------------------||
|--------------------------||
|-----------------------5-o||
|-7-7-7-7-7-7-7-7-7-7-7----||


  D5                              D5    E5                   D5
     PM--|    PM----------------|                PM--------|    PM--|
     |-3-|    |-3-|   |-3-| |-3-| |--3--|        |-3-| |-3-|    |-3-|
  Q  E E E Q  E E E   E E E E E E Q  a  E +Q     E E E E E E Q  E E E
|-------------------|--------------------------|----------------------|
|-------------------|--------------------------|----------------------|
|-7--------7--------|-------------7-(7)s9-(9)--|-------------7--------|
|-7--------7--------|-------------7-(7)s9-(9)--|-------------7--------|
|-5--------5--------|-------------5-(5)s7-(7)--|-------------5--------|
|----7-7-7----7-7-7-|-7-7-7-7-7-7--------------|-7-7-7-7-7-7----7-7-7-|


  D5              E5               D5
  W                    W
     PM--|             PM--------|    PM-----
     |-3-|             |-3-| |-3-|    |-3-|
  Q  E E E Q   a  Q    E E E E E E Q  E E E
|--------------------|----------------------|
|--------------------|----------------------|
|-7--------7---------|-------------7--------|
|-7--------7--(7)s9--|-------------7--------|
|-5--------5--(5)s7--|-------------5--------|
|----7-7-7-----------|-7-7-7-7-7-7----7-7-7-|


              D5    B5       D5   E5
                             Gtr II
  W                          H     H
                             |     |
                             /     /

                             Gtr I
 -----------|
  |-3-| |-3-| |--3--|
  E E E E E E Q  a  E +Q     H     H
|--------------------------|------------|
|--------------------------|------------|
|-------------7-(7)s4-(4)--|-7----/9----|
|-------------7-(7)s4-(4)--|------------|
|-------------5-(5)s2-(2)--|-5----/7----|
|-7-7-7-7-7-7--------------|------------|


                 Guitar Solo
  G5X   F#5       E5           G5X          D5
                  Gtr II
   H      H       W            W            W
   |      |       |            |            |
   /      /       /            /            /

                  Gtr III
                                                    |---3---|
   H      H       H     H      H     H      Q.   E  Q  a  Q Q
|--------------||------------|------------|--------------------|
|--------------||------------|------------|--------------------|
|-12----/14----||------------|------/7----|--------------------|
|--------------||------/9----|-5----------|-4----5-/7-(7)s5-4--|
|-10----/12----||-7----------|------------|--------------------|
|--------------||------------|------------|--------------------|


  E5      D5   C5                          E5
  H    Q  Q    W                            W
  |    |  |    |                            |
  /    /  /    /                            /

  ~                                                    PM--|
                          |-----3------|    |---3----| |-3-|
  H    Q  Q    Q.   E  a  Q  a  Q  a   Q    Q   a  Q Q E E E Q
|------------|---------------------------|-----------------------|
|------------|---------------------------|-------------------8p==|
|------------|---------------------------|-----------------------|
|-5----2--0--|---------------------------|---------------x-------|
|------------|-3----5-(5)s7-(7)s9-(9)s10-|-10-(10)s9-7-x---x-----|
|------------|---------------------------|-----------------------|


  D5
  W                             +W
  |                              |
  /                              /

                                             ~~~~~~~
  |-3-|         |3|  |3-|                        |-3--|
  S S S +E  E E Q E +Q  E       +Q   +E  +E  Q  +Q    E
|-----------------------------|-------------------------|
|-7h8p7-(7)-5-----------------|---------------------/12-|
|-------------7-7-9-(9)-9b11==|=(9)--(9)r(9)-7--(7)-----|
|-----------------------------|-------------------------|
|-----------------------------|-------------------------|
|-----------------------------|-------------------------|


  E5
   W
   |
   /

                                ~~
   |3-|
   Q  E      +Q     a     +Q    Q
|-12-------------------------------|
|----15b17==(15)r--15b17-(15)--15--|
|----------------------------------|
|----------------------------------|
|----------------------------------|
|----------------------------------|


  G5X                                      D5
   W                                        W
   |                                        |
   /                                        /

                                            ~~
   |---3----|               |3-|   |-3-|                    |--3--|  |----3----|
   S  S  E  E  E.     +S    Q  E  +Q   E    Q   S  S  S  S  E  E  E  E  E  S   S
|----------------------------------------|----------------------------------------|
|-13h15p13-12-15b16==(15)r-12-13-(13)-12-|----------------------------------------|
|----------------------------------------|-14--12h14p12-11-12p11----11-12-12p(11)-|
|----------------------------------------|-----------------------14---------------|
|----------------------------------------|----------------------------------------|
|----------------------------------------|----------------------------------------|


  E5                         D5
   H                 Q         Q
   |                 |         |
   /                 /         /

   |--3--|  |--3--|  |--3--|   |---3----|
   E  E  E  E  E  E  E  E  E   E    E   E
|----------12-14-12----12-15-[14]-[12]-12---|
|-------12----------12----------------------|
|-12-14-------------------------------------|
|-------------------------------------------|
|-------------------------------------------|
|-------------------------------------------|


  C5
   W
   |
   /

                         ~~
            |-----3------|
   Q        E    Q.      Q  Q
|----------12---12-------------|
|-15b17===(15)r-15b17===15-13--|
|------------------------------|
|------------------------------|
|------------------------------|
|------------------------------|


  E5
   W
   |
   /

                               /1.25____|    |
   |---3----|     |--3--|  |--------3--------|
   S  S  E  E     E  E  E  E   a       +E   +E   S  S  S  S
|----------------12-----------------------------------------|
|-12h13p12----------12--------------------------------------|
|----------14b16----14-14-14-(14)-----(14)-(14)-12h14p12s11-|
|-----------------------------------------------------------|
|-----------------------------------------------------------|
|-----------------------------------------------------------|


  D5
   W
   |
   /

   |----5-----|  |-3--| |-3-| |-3-|    |-3--|
   S  S  S  S S  S S  S S S S S S S E +S  S S +E
|-------------------------------------------------|
|-------------------------------------------------|
|-12p11h12p11s9-11p9h11p9s7h9-7h9p7-5-(5)p4h5-(5)-|
|-------------------------------------------------|
|-------------------------------------------------|
|-------------------------------------------------|


    +W
     |
     /

               /1________|
     |-3-|   |3|         |--3---|
  a  E E E a E Q   +Q   +E  +E  E
|-----------------------------------|
|-0h=5p0h3--------------------------|
|----------2h4-2---(2)--(2)-(2)-2h==|
|-----------------------------------|
|-----------------------------------|
|-----------------------------------|


  B5         A5         G5        F#5II
  H          H           H        H
  |          |           |        |
  /          /           /        /

                 \1_____________________
     ~~~~~~~                      ~
  |3-|
  Q +E  +Q   Q  +Q       H     a  H
|---------------------|----------------|
|---------------------|-/8----(8)s7----|
|-4-(4)-(4)--2--(2)---|----------------|
|---------------------|-/5----(5)s4----|
|---------------------|----------------|
|---------------------|----------------|


   Break
        E5    D5                       E5
    W                        W
    Gtrs I, II
    PM|                  PM    PM
    |3| |--3--|       |3-|   |3| |--3--|
    Q E Q  a  E +Q   +Q  E   Q E Q  a  E +H
||-------------------------|--------------------|
||o------------------------|--------------------|
||------9-(9)s7-(7)--(7)---|-7---7-(7)s9-(9)----|
||------9-(9)s7-(7)--(7)---|-7---7-(7)s9-(9)----|
||o-----7-(7)s5-(5)--(5)-5-|-5-5-5-(5)s7-(7)----|
||--0-0--------------------|--------------------|


  1.
      E5    D5                   A5
  PM|                  PM------|
  |3| |--3--|       |3-|   |3| |3|
  Q E Q  a  E +Q   +Q  E   Q E Q E +H
|------------------------|-----------------||
|------------------------|----------------o||
|-----9-(9)s7-(7)--(7)---|-------2-(2)-----||
|-----9-(9)s7-(7)--(7)---|-------2-(2)-----||
|-----7-(7)s5-(5)--(5)---|-------0-(0)----o||
|-0-0------------------0-|-3-0-3-----------||


  2.
                     D.S.S. al Dbl. Coda
      E5    D5                     A5 G5
  PM|                      PM----|
  |3| |--3--|              |3| |3|
  Q E Q  a  E +Q   +Q      Q E Q E Q  Q
|------------------------|-----------------||
|------------------------|-----------------||
|-----9-(9)s7-(7)--(7)\--|-----------------||
|-----9-(9)s7-(7)--(7)\--|---------7--5----||
|-----7-(7)s5-(5)--(5)\--|---------7--5----||
|-0-0--------------------|-6-5-3-0-5--3----||


  &&
  E5                           D5                  Dsus4
  PM--|
  |-3-|                     |-3-|             |-3--|
  E E E H.        +H.      +Q   E   +H.      +Q  a E
|---------------|-----------------|------------------|
|---------------|-----------------|----------------8-|
|-------9-------|-(9)------(9)-\7-|-(7)------(7)---7-|
|-------9-------|-(9)------(9)-\7-|-(7)------(7)-x---|
|-2-----7-------|-(7)------(7)-\5-|-(5)------(5)-----|
|-0-0-0---------|-----------------|------------------|


           D          A5               D5
        |3-|       |3-|             |3-|
  +Q   +Q  E +Q    Q  E   +H.      +Q  E
|-----------------------|-----------------|
|-(8)--(8)-7-(7)--------|-----------------|
|-(7)--(7)-7-(7)--(0)---|--------------7--|
|-----------------(0)-7-|-(7)------(7)-7--|
|---------------------7-|-(7)------(7)-5--|
|---------------------5-|-(5)------(5)----|


                                              Chorus
         A5 G5E5                               A5         C5
                                      PM--|
            |3|                       |-3-|                   |3-|
  +H     Q  Q E   +W           +H     Q Q Q    W          Q  +Q  E +H
|---------------|------------|--------------||----------|-----------------|
|---------------|------------|--------------||----------|--------5-(5)----|
|-(7)-----------|------------|--------------||-2--------|-5--(5)-5-(5)----|
|-(7)----7------|------------|--------------||-2--------|-5--(5)----------|
|-(5)----7--5-2-|-(2)--------|-(2)----------||-0--------|-3--(3)----------|
|--------5--3-0-|-(0)--------|-(0)----6-5-3-||----------|-----------------|


  E5          D5               C5         G5    C5      D5
                                          Gtr II
  W                W           W          H     H       W
                                          |     |
                                          /     /

                                          Gtr I         Gtrs I, II
           |3-|
  H.      +Q  E   +W           W          q  Q  q  Q    W
|---------------|------------|----------|----3--------|------|
|-------------3-|-(3)--------|----------|----3-----8--|------|
|-------------2-|-(2)--------|-5--------|----0--5--5--|-7----|
|-2-------(2)-0-|-(0)--------|-5--------|-5-----5--5--|-7----|
|-2-------(2)---|------------|-3--------|-5-----------|-5----|
|-0-------(0)---|------------|----------|-3-----------|------|


  N.C.(A(G5)   E5   C5     B5   G5     C5D5           G5 A5
               Gtrs I, III                            Gtr III
   W           H    H      H    H      W              H.          Q
               |    |      |    |                                 |
               o    o      o    o                                 x

  Gtrs I, II, IGtr II                  Gtrs I, II
                                       |3|            |3-|
   H    H      H    H      H    H      Q E +H.        Q  E +H.
|------------|-----------|-----------|--------------|----------------||
|------------|-----------|-----------|--------------|----------------||
|------------|-----------|-----------|-5-7-(7)------|----------------||
|-/7----5----|-9----5----|-4---------|-5-7-(7)------|-5--7-(7)-------||
|------------|-7----3----|-2----5----|-3-5-(5)------|-5--7-(7)-------||
|------------|-----------|------3----|--------------|-3--5-(5)-------||


 Guitar Solo 2
  E5                D5                                        E5
  Gtr III
   \0.5/                   \0.5/        \2___|                      \1/        \2  \1/
            |----3----|                 |-3--|             |-3--|              |-3-|
   Q       +E   +E   +E   +E      +E   +Q    E    Q       +Q   +E   E    +E   +Q   E
|----------------------------------------------|----------------------------------12---|
|-12b15===(12)-(12)r(12)-(12)----(12)-(12)--12-|-12b15===(12)r(12)-12---(12)-(12)------|
|----------------------------------------------|---------------------------------------|
|----------------------------------------------|---------------------------------------|
|----------------------------------------------|---------------------------------------|
|----------------------------------------------|---------------------------------------|


                           D5
        \0.5/     \0.5/                   \1/   \1____|
    |----3-----|  |-----3-----|                 |--3--|
   +E   E      E  E      E S  S  S  S  S  S    +E     Q
|-(12)----------------------------------------------(12)--|
|------12p====10-12-------------12-13p12-12---(12)---12---|
|-----------------------12-9s16-12-14p12-------------12---|
|-----------------------12--------------------------------|
|---------------------------------------------------------|
|---------------------------------------------------------|


                 E5
               /  /1__|
               |3-|   |--3--|  |--3--|
   S  S  S  S  E  Q   E  E  E  E  E  E
|-----------------------------------------|
|-10h12----12-12-12---x-13-12-------------|
|-------12----12-12---x-------14-12-14b16-|
|-----------------------------------------|
|-----------------------------------------|
|-----------------------------------------|


                 D5
   |--3--|  |--3--|     |--3--|
   E  E  E  E  E  E     E  E  E  S  E     S
|----------12-------------------12----------|
|-12-15p12----15-------12h15p12----15b16-15-|
|----------------14b16----------------------|
|-------------------------------------------|
|-------------------------------------------|
|-------------------------------------------|


                    E5
                                              ~~~~
   |--3--|     |---3----|  |------3------|    |-3-|
   E  E  E     E  E  S  S  E      +E     E   +Q   E
|----------------------------------------------------|
|-13-12-------13-12-------13b15==(13)r---------------|
|-------14b16-------14p12--------------[12]-(12)-----|
|------------------------------------------------(x)-|
|------------------------------------------------(x)-|
|----------------------------------------------------|


                       D5
       PM|                                   PM
       |--3---|   |--3--|     |--3---|
  a a  E  E   E   E  E  E  a  S  S   Q       S   E  S
|------------------------------------------------------|
|------------------------------------------------------|
|-------------------12-------------/12b12.5----/14-12--|
|---x-12----[12]-14----14----------/12b12.5-14---------|
|-x------14------------14-12h14p12---------------------|
|-------------------------12h14p12---------------------|


                 E5
   |--3--|  |--3--|       |----3----|  |-----3-----|
   E  E  E  S  E  E.     +E    E    E  E  E  S     S
|-----------------------------12---------------------|
|-12-13-12----12-------------------12-15-12-------12-|
|----------14-12-14b16==(14)-(14)r----------14b16----|
|----------14----------------------------------------|
|----------------------------------------------------|
|----------------------------------------------------|


                      D5                                          E5
   |--3---|   |---3----|  |---3----|  |--3--|    |3-|     |---3----|              |3-|
   Q      E   E     E  E  E     E  E  Q     E    E  Q     E  E     E  S  E     S  E  Q
|-------(12)----------12----------12----------|-12-------12-------12-12----------12-------|
|--------12--------12----------12----------12-|----------------------12-------12----------|
|-14b16------14b16-------14b16-------14b16----|----14b16----14b16-------14b16-------14b16-|
|---------------------------------------------|-------------------------------------------|
|---------------------------------------------|-------------------------------------------|
|---------------------------------------------|-------------------------------------------|


                       D5
               |---3----|  |--3--|
   S  S  S  S  E     E  E  E  E  E  T  T  E     S
|-15p12----------------12-15p12-------12-------12-|
|-------15p12-------12----15p12-15p12----------12-|
|-------------14b16----------------------14b16----|
|-------------------------------------------------|
|-------------------------------------------------|
|-------------------------------------------------|


                    E5
   |--3--|  |---3----|
   E  E  E  E  E     E  S  S  S  S  a  S  S     S  S
|-15p12----12-------12-17p12h15p12----12----------12-|
|-------15----------12-------------12----------12----|
|-------------14b16----------------------14b16-------|
|----------------------------------------------------|
|----------------------------------------------------|
|----------------------------------------------------|


                 D5
   |--3--|  |--3--|  |---3----|  |---3----|
   E  E  E  E  E  E  E     E  E  E  E  S  S
|-15p12h17p12-------------12----12-------12-|
|-------------15p12----------12----15-12----|
|-------------------14b16-------------------|
|-------------------------------------------|
|-------------------------------------------|
|-------------------------------------------|


                 E5
               PM
   |--3--|  |--3--|  |-----3------|  |--3--|
   Q     E  E  E  E  E     E      E  E  E  E
|-------12-----------------------------------|
|-15b17----12--------------------12-12-12----|
|-----------x-14-12-14b16-14pb16----12-14-12-|
|--------------------------------------------|
|--------------------------------------------|
|--------------------------------------------|


                       D5
   |---3----|  |---3----|  |--3--|  |--3--|      |--3---|
   E     E  E  E     E  E  E  E  E  S  S  S     +S   S  S
|---------------------------------------------------------|
|-12----12-15-------12----12----------12------------------|
|-14b16-------14b16----14----14-12-14----14b16r(14)p12-14-|
|---------------------------------------------------------|
|---------------------------------------------------------|
|---------------------------------------------------------|


                            E5                                       D5
                                                                        \1/
                                           ~~~~~~~~~~~~~                     ~~~~~~~
   |---3---|                       |---3---|              |-3-| |-3--|  |-3--|
   Q       E        +S    S  S  S  Q       E  +S   +E.    E E E E  E E +Q   +E  +Q
|-------------------------------------------------------|------------------------------||
|-12b12.5-----------------------------------------------|------------------------------||
|---------12b12.5==(12)r----------12b12.5---------------|-9-7--------0-(0)--(0)-(0)----||
|------------------------14p12-14---------14-(14)-(14)\-|-----9-7----------------------||
|-------------------------------------------------------|---------10-------------------||
|-------------------------------------------------------|------------------------------||


  Q=145        H.=H
  Bb5   A5     G5      E5open
  Gtr III
        ~
   H    H      H.      Q    +W
|------------|------------|---------------|
|------------|------------|---------------|
|------------|------------|---------------|
|------------|------------|---------------|
|------------|------------|---------------|
|-/6----5----|-3-------0--|-(0)-----------|
|
| Gtrs I, II
|                                     ~~~~~
|  H    H      H.      Q    +H.      +Q
|------------|------------|---------------|
|------------|------------|---------------|
|------------|------------|---------------|
|--8----7----|-5-------2--|-(2)------(2)--|
|--8----7----|-5-------2--|-(2)------(2)--|
|--6----5----|-3-------0--|-(0)------(0)--|


                \1_________________/
                |--3--|
  +W            E    +Q    +Q     +H
|------------|---()-()--()----*|
|------------|---()-()--()----*|
|------------|----------------------------*|
|------------|----------------------------*|
|------------|----------------------------*|
|-(0)--------|----------------------------*|
|
|~~~~~~~~~~~~~~~~~~~
| +W           +W
|------------|----------------------------*|
|------------|----------------------------*|
|------------|----------------------------*|
|-(2)--------|-(2)------------------------*|
|-(2)--------|-(2)------------------------*|
|-(0)--------|-(0)------------------------*|



Duration Legend
---------------
W - whole; H - half; Q - quarter; E - 8th; S - 16th; T - 32nd; X - 64th; a - acciaccatura
+ - note tied to previous; . - note dotted; .. - note double dotted
Uncapitalized letters represent notes that are staccato (1/2 duration)
Irregular groupings are notated above the duration line
Duration letters will always appear directly above the note/fret number it represents the
duration for.  Duration letters with no fret number below them represent rests.  Multi-
bar rests are notated in the form Wxn, where n is the number of bars to rest for.  Low
melody durations appear below the staff

Tablature Legend
----------------
 h   - hammer-on
 p   - pull-off
 b   - bend
 pb  - pre-bend
 r   - bend release (if no number after the r, then release immediately)
 /\  - slide into or out of (from/to "nowhere")
 s   - legato slide
 S   - shift slide
 - natural harmonic
[n]  - artificial harmonic
n(n) - tapped harmonic
 ~   - vibrato
 tr  - trill
 T   - tap
 TP  - trem. picking
 PM  - palm muting
\n/  - tremolo bar dip; n = amount to dip
 \n  - tremolo bar down
 n/  - tremolo bar up
/n\  - tremolo bar inverted dip
 =   - hold bend; also acts as connecting device for hammers/pulls
 <> - volume swell (louder/softer)
 x   - on rhythm slash represents muted slash
 o   - on rhythm slash represents single note slash

Misc Legend
-----------
 |  - bar
||  - double bar
||o - repeat start
o|| - repeat end
*|  - double bar (ending)
 :  - bar (freetime)
 $  - Segno
 &  - Coda
Tempo markers -  = BPM(8/16=s8/s16), where s8 = swing 8ths, s16 = swing 16ths





Comments


Popular Rata Blanca tabs & chords
La Cancion Del Guerrero Bass Tabs
La Llave De La Puerta Secreta Bass Tabs
Volviendo A Casa Bass Tabs
Mujer Amante 1 Chords
Dias Duros Tabs
Mujer Amante 2 Tabs
Otono Medieval Tabs
Por Que Es Tan Dificil Amar Tabs
Preludio Obsesivo 1 Tabs
Aun Estas En Mis Suieos Ukulele


Song lyrics



↑ Back to top | Tablatures and chords are parodies/interpretations of the original songs. You may use it for private study, scholarship, research or language learning purposes only
© 2014 AZChords.com Contact us | Privacy policy | DMCA | Add/correct tabs | Request tabs | Top 50 tabs