» » »

Rata Blanca, En Nombre De Dios? Tabs (ver.1)

Artists:  A B C D E F G H I J K L M N O P Q R S T U V W X Y Z # 

En Nombre De Dios? Tabs (ver.1)

Rata Blanca Tabs
Rating:
0/5 (0 votes)
En Nombre De Dios? lessons Tabs too difficult? Try these video lessons and learn fast
                INTRO

  Riff 1
e |------------------------------------------------------------------
B |------------------------------------------------------------------|
G |------------------------------------------------------------------|
D |------------------------------------------------------------------|
A |------------------------------------------------------------------|
E |17\--12-0-0-13-0-0-12-0-0-10-0-0-12-0-13-0-12-0-0-10-0-0-12-0-0-13|

e |---------------|
B |---------------|
G |---------------|
D |---------------|
A |---------------|
E |-0-0-12-0-10-0-|

e |----------------------------------------|-----------------------------|
B |----------------------------------------|-----------------------------|
G |----------------------------------------|-----------------------------|
D |----------------------------------------|-------------------3---------|
A |----------------------------------------|-------------------1---------|
E |--12-0-0-13-0-0-12-0-0-10-0-0-12-0-13-0-|--12-0-0-10-0-12-0-----------|

e |-----------------------------------------------------------------|
B |-----------------------------------------------------------------|
G |-----------------------------------------------------------------|
D |-----------------------------------------------------------------|
A |-----------------------------------------------------------------|
E |--12-0-0-13-0-0-12-0-0-10-0-0-12-0-13-0-12-0-0-10-0-0-12-0-0-13-0|

e |-------------|
B |-------------|
G |-------------|
D |-------------|
A |-------------|
E |-0-12-0-10-0-|

e|--------------------------------------------------------------------------|
B|--------------------------------------------------------------------------|
G|--------------------------------------------------------------------------|
D|--------------------------------------------------------------------------|
A|--------------------------------------------------------------------------|
E|--12-0-0-13-0-0-12-0-0-10-0-0-12-0-13-0-12-0-0-10-0-0-8-0-7-0-0-8-0-0-7-0-|

  Riff 2
e |--------------------------------------------------------------------|
B |--------------------------------------------------------------------|
G |--------------------------------------------------------------------|
D |--------------------------------------------------------------------|
A |--0-0-0-2-0-3-0-5-0-0-2-0-0-3-0-0-5-0-7-0-8-0-0-5-0-0-7-0-0-12-0-10-|
E |--------------------------------------------------------------------|

e |----------------------------------------|
B |----------------------------------------|
G |----------------------------------------|
D |----------------------------------------|
A |--0-8-0-0-7-0-0-5-0-0-3-0-2-0---0---0-2-|
E |------------------------------3---------|

e |--------------------------------------------------------------------|
B |--------------------------------------------------------------------|
G |--------------------------------------------------------------------|
D |--------------------------------------------------------------------|
A |--0-0-0-2-0-3-0-5-0-0-2-0-0-3-0-0-5-0-7-0-8-0-0-5-0-0-7-0-0-12-0-10-|
E |--------------------------------------------------------------------|

e |--------------------------------------------------------------------|
B |--------------------------------------------------------------------|
G |--------------------------------------------------------------------|
D |--------------------------------------------------------------------|
A |--0-8-0-0-7-0-0-5----5-5-5-5---5-5-5-5---5-5-5-5-2-2-2-2---2-2-2-2--|
E |---------------------3-3-3-3---3-3-3-3---3-3-3-3-0-0-0-0---0-0-0-0--|

e |-----------|
B |-----------|
G |-----------|
D |-----------|
A |-2-2-2-2---|
E |-0-0-0-0---|


 A     B  C   D   G    A
 El hijo del Sol regreso 
 F         E
 en la tormenta
 A      B  C  D   G      C
 su alado corcel descendio
 F          E
 cerca del mar

 D               Bb           D
 Si escuchas el trueno entenderas
        C        A      Bb
 el mensaje, en su temblor
 Bb  A  G    Ab     (Riff 3)
 nadie le puede escapar...

  Riff 3
e |-----------------------------------------------|
B |-----------------------------------------------|
G |-----------------------------------------------|
D |-----------------------------------------------|
A |-4-0-5-0-7-0-4-0-5-0-7-0-8-0-7-0-5-0-4-0-5-0-4-|
E |-----------------------------------------------|

  B      G    G-Ab-A   D              A
 Y estridente           ya viene a golpear
  B     G     G-Ab-A   D             A
 las miserias           de la humanidad
  B      G    G-Ab-A   D                 A
 es la llama            que va a enloquecer
 B      G      G-Ab-A   D            E
 a los hombres           que ya son,

 son hijos del Mal.
            

comments powered by Disqus
↑ Back to top | Rata Blanca Tabs for En Nombre De Dios?. Lyrics for acoustic guitar and electric guitar. Tablatures and chords are parodies/interpretations of the original songs. You may use it for private study, scholarship, research or language learning purposes only