» » »

Rata Blanca, Cuando La Luz Oscurece Tabs (ver.1)

Artists:  A B C D E F G H I J K L M N O P Q R S T U V W X Y Z # 

Cuando La Luz Oscurece Tabs (ver.1)

Rata Blanca Tabs
 Rating:
4/5 (4 votes)
Cuando La Luz Oscurece lessons Tabs too difficult? Try these video lessons and learn fast
                Intro:
			    Bm        A          Em        F#m      G
e|-----------------------|---------------------------------------------|
B|-----------------------|-/12-14b15r14-------------15------15---------|
G|------7--9/10/9-7------|--------------14b16r14-16---16v-16--16v------|
D|--7h9-7--9/10/9-7------|----------------------------------------12---|
A|--7h9------------------|------------------------------------------14-|
E|-----------------------|---------------------------------------------|
    Bm				 A   Bm
e|---------------------------------------------|
B|---------------------------------------------|
G|---------------------------------------------|
D|-16p14/12-12-/16-16--12--11------------------|
A|----------------------------12--12/14vv------|
E|---------------------------------------------|

Bm          A
Puedo sentir que lentamente
Em F#m  G          Bm
ella me deja para siempre
Bm              A
Me dio su amor, me dio su cuerpo
Em     F#m  G             Bm
y amarnos fue nuestro secreto  ------>	e|-------------------------|
					B|-12vv----12-14-14b15r14--|
					G|------14-----------------|
A               G A
se fue sin prisa, perdio su aliento --> G|--7////--|
					D|--7////--|
Bm     G    Em   Bm    G     A          A|---------|
  Alguien lloro,   y yo tambien
Bm     G    Em             A   F#
  y en ese instante se alejo
Bm     G    Em   Bm      G      A
  y el sol entro,   sin comprender
Bm     G    Em             A  G              Bm
  que en esta fria habitacion... la luz oscurece

Solo 1:
e|--------------------------------------------------------------------------------|
B|--12--14b15-14b15r14--12vv-------12b14-12b14r12--10-----12-14-15-15b17r15-14-12-|
G|---------------------------11-9---------------------9/7-------------------------|
D|--------------------------------------------------------------------------------|
A|--------------------------------------------------------------------------------|
E|--------------------------------------------------------------------------------|

e|------------------------------------------|
B|--12h15p12--------------------------------|
G|----------------------11-14-14-14/16vvv---|
D|------------------12----------------------|
A|------------12h14-------------------------|
E|------------------------------------------|


Puedo sentir  en mi silencio
como su adios golpeo en mi pecho
y ese dolor trajo recuerdos
cuando jurabamos lo eterno

se fue despacio,  dejo una brisa

y amanecio, lo se muy bien
sin ella no hay una razon
me dio su amor,  y yo tambien
y el mundo era de los dos...  nuestro para siempre

Solo 2: (un pedazo)
e|------------------------------------------------------------------------|
B|------------------------------------------------------------------------|
G|--14-----14-----14-----14-----------------------------------------------|
D|-----16b----16b----16b----14vv--12-11-------12-14/16-12-------12-14/16--|
A|--------------------------------------12-14-------------12-14-----------|
E|------------------------------------------------------------------------|

e|----------------------------------------------------12-12h14-14p12/10-10/12-|
B|-12-14-b15r14--12----12-14-12--12-14-14-14h15-14h15-------------------------|
G|------------------14--------------------------------------------------------|
D|----------------------------------------------------------------------------|
A|----------------------------------------------------------------------------|
E|----------------------------------------------------------------------------|

e|-9h10/12--------------------------------------------------------------------|
B|---------14-14p12----------14b15r14-12--------------------------------------|
G|------------------14-14/16-------------14b15r14-11--------------------6--7--|
D|---------------------------------------------------12-14/16-12--9--9--------|
A|----------------------------------------------------------------------------|
E|----------------------------------------------------------------------------|
				    | comienza la distorsión
e|----------------------------------------------------------------------------|
B|----------12b14r12----12-14-15-14////---------------------------------------|
G|-7/9-7-6-----------14----------------------9/11-9vv--7-9-9b11r9----7-9-9/11-|
D|--------------------------------------/9------------------------9v----------|
A|----------------------------------------------------------------------------|
E|----------------------------------------------------------------------------|

e|----------------------7-9b10r9p7-9b10---------------------------------------|
B|------------10/12/10-------------------12-10-12p10---10---------15b17r15-14-|
G|-9-7h9p7-------------------------------------------12--12-11-9--------------|
D|---------7------------------------------------------------------------------|
A|----------------------------------------------------------------------------|
E|----------------------------------------------------------------------------|

e|-15/17-17--18----19-20b-20brp18-19v-----------15---|
B|--------------19---------------------15-17-19------|
G|---------------------------------------------------|
D|---------------------------------------------------|
A|---------------------------------------------------|
E|---------------------------------------------------|
            
Submit corrections

comments powered by Disqus
↑ Back to top | Rata Blanca Tabs for Cuando La Luz Oscurece. Lyrics for acoustic guitar and electric guitar. Tablatures and chords are parodies/interpretations of the original songs. You may use it for private study, scholarship, research or language learning purposes only