» » »

Rata Blanca, Capricho Arabe Tabs (ver.1)

Artists:  A B C D E F G H I J K L M N O P Q R S T U V W X Y Z # 

Capricho Arabe Tabs (ver.1)

Rata Blanca Tabs
 Rating:
4/5 (4 votes)
Capricho Arabe lessons Tabs too difficult? Try these video lessons and learn fast
1
                e|-------------------------------------------------------------|\
B|-------------------------------------------------------------| |  __
G|-------------------------------------------------------------| \ |__|
D|-------------------------------------------------------------| / |  |
A|--------------1-2-4-2-1---2------------------1-2-4-2-1-------| |
E|--2-3-2-0-2-3-----------3---3-0--2-3-2-0-2-3-----------3-2~--|/


e|--------------------------------------------------------------|\
B|--------------------------------------------------------------| |  __
G|--------------------------------------------------------------| \ |__|
D|----------------0-2-0-----0---------------------0-2-0---------| / |__/
A|--0-1-0---0-1-4-------4-1---1-0---0-1-0---0-1-4-------4-1-----| |
E|--------3-----------------------3-------3-----------------5~--|/

La forma de tocarlo es la siguiente: A, A, B, A, A, A, A, A.
Luego sigue ésto:

e|-----14-12-14-10-14-9-14----14-12-14-----------------|
B|--12---------------------12----------11-12-14-11-12--|
G|-----------------------------------------------------|
D|-----------------------------------------------------|
A|-----------------------------------------------------|
E|-----------------------------------------------------|

e|--14-12-14-10-14-9-14----12-14-12-13*\--|
B|----------------------12----------------|
G|----------------------------------------|
D|----------------------------------------|
A|----------------------------------------|
E|----------------------------------------|

e|-----19-17-19-15-19-14-19----19-17-19-----------------|
B|--17----------------------17----------16-17-19-16-17--|
G|------------------------------------------------------|
D|------------------------------------------------------|
A|------------------------------------------------------|
E|------------------------------------------------------|

e|-----19-17-19-15-19-14-19----19-17-19------------------|
B|--17----------------------17----------16-17-19-16-17*--|
G|-------------------------------------------------------|
D|-------------------------------------------------------|
A|-------------------------------------------------------|
E|-------------------------------------------------------|

e|-15-14-12-14-15-14-12-------------------12-14-15-14-12----12-14-12---------
B|----------------------15-14----12-14-15----------------15----------15-14-12
G|----------------------------14---------------------------------------------
D|---------------------------------------------------------------------------
A|---------------------------------------------------------------------------
E|---------------------------------------------------------------------------

e|-----------------12-14-12----------12--------------|
B|--------12-14-15----------15-14-15----15-14-12-----|
G|--12-14----------------------------------------15--|
D|---------------------------------------------------|
A|---------------------------------------------------|
E|---------------------------------------------------|

e|-------------------12-------------15-14-12-------------------------|
B|----------12-14-15----15-14-12-14----------15-14-12----------------|
G|-11-13-15-------------------------------------------14-12b(11)~~~--|
D|-------------------------------------------------------------------|
A|-------------------------------------------------------------------|
E|-------------------------------------------------------------------|
            
Submit corrections

comments powered by Disqus
↑ Back to top | Rata Blanca Tabs for Capricho Arabe. Lyrics for acoustic guitar and electric guitar. 1 Tablatures and chords are parodies/interpretations of the original songs. You may use it for private study, scholarship, research or language learning purposes only