array
(
    
'caballozalvaje' => 'caballozalvaje'
    'ratablanca' 
=> 'ratablanca'
)
Caballo Zalvaje Bass tabs (ver. 1) by Rata Blanca @ AZ CHORDS.COM
» » »

Caballo Zalvaje Bass tabs (ver.1)

Artists:  A B C D E F G H I J K L M N O P Q R S T U V W X Y Z # 

Caballo Zalvaje Bass tabs (ver.1)

Rata Blanca
Rating:
0/5 (0 votes)

Hard to play? Try these video lessons and learn fast.
                Intro
Acordez: Fa, Rem.

   Lam#

6a|-4-4-4-4-4-4-4-4-4-4-4-4-4-4-4-4-4-4-4-4-4-4-4-4-4-4-0-0-0-0-0-|
5a|---------------------------------------------------------------|
4a|---------------------------------------------------------------|
3a|---------------------------------------------------------------|
2a|---------------------------------------------------------------|
1a|---------------------------------------------------------------|

   Lam#

6a|---------------------------------------------------------------|
5a|0-0-0-0-0-0-0-0-0-0-0-0-0-0-0-0-0-0-0-0-5-6-7-8-9-6-8-9-10-7-6-|
4a|----------------------------------------5-6-7-8-9-6-8-9-10-7-6-|
3a|---------------------------------------------------------------|
2a|---------------------------------------------------------------|
1a|---------------------------------------------------------------|

Zolo:

6a|--------------------------------------------------------------------------|
5a|--------------------------------------------------------------------------|
4a|--------------------------------------------1-3-4-------------------------|
3a|--------------------------------------1-2-3-------------------------------|
2a|1-4-2-4-4-5-6-6-6-6--------------1-2-3------------------------------------|
1a|--------------------2-4-5-6-7-8-9-----------------------------------------|


6a|------------------------------------1-2-4-5-6-7-3------------------------|
5a|-----------------------------1-4-3----------------4----------------------|
4a|----------------------4-5-6------------------------4-4-------------------|
3a|--------------3-0--------------------------------------4-6---------------|
2a|----------1-3-----3-4-------------------------------------5-6-7-8--------|
1a|(5)(5)-1-2----------------------------------------------------------8-8--|

parte ligada

1|---------------------------------------------------|
2|58-058-058-058-047-047-047-047-058-0710-058-058----|
3|---------------------------------------------------|
4|---------------------------------------------------|
5|---------------------------------------------------|
6|---------------------------------------------------|


aca ez con taping

    t      t      t      t      t      t      t      t
E|---------------------------------------------------------|
B|-12-8-5-12-8-5-12-8-5-12-8-5-13-8-5-13-8-5-13-8-5-13-8-5-|
G|---------------------------------------------------------|
D|---------------------------------------------------------|
A|---------------------------------------------------------|
E|---------------------------------------------------------|

    t      t      t      t      t      t      t      t      t
E|-------------------------------------------------------------|
B|-10-7-4-10-7-4-10-7-4-10-7-4-12-7-4-12-7-4-12-7-4-12-7-4-12--|
G|-------------------------------------------------------------|
D|-------------------------------------------------------------|
A|-------------------------------------------------------------|
E|-------------------------------------------------------------|

E|--------------------------------------------------8-10-8----------7-8-7---------|
B|-8-10-8-7-8-7---7---7-8-7-8-10-8/10-12-10/12~~-----------10-12-10-------8-10-8--|
G|--------------9---9-------------------------------------------------------------|
D|--------------------------------------------------------------------------------|
A|--------------------------------------------------------------------------------|
E|--------------------------------------------------------------------------------|

E|-5-7-5--------------------------------------------------------------------------|
B|-------7-8-7-8-10-8-8-10-8---7-----7---------------------7---7-8---8-10---10----|
G|---------------------------9---9-9---9-9---9-9---9-8---8---------9------7-------|
D|-----------------------------------------9-----9-----9-----9--------------------|
A|--------------------------------------------------------------------------------|
E|--------------------------------------------------------------------------------|

E|----------------------------------------------------------------------|
B|-12-10-8-7~-(7810-7810-7810-7810-7810-7810)-10-8-7-5~~---7~~----------|
G|----------------------------------------------------------------------|
D|----------------------------------------------------------------------|
A|----------------------------------------------------------------------|
E|----------------------------------------------------------------------|

E

E|-----------------------------------------------------------------|
B|---7-----7-------------------------------------------------------|
G|-9---9-9---9-9---9-9---9-8---8-8---8-9---9-8---8-----------------|
D|---------------9-----9-----9-----9-----9-----9-------------------|
A|-----------------------------------------------------------------|
E|--------------------------------------------------0~~-------4\---|


bueno ezte ez mi primer tab puze todo con z ´por q no me andaba la ece jajaja
bueno ezpero q lez guzte
aguante rata blanca
            
Hard to play? Try these video lessons and learn fast. | Correct




comments powered by Disqus
↑ Back to top | Tablatures and chords are parodies/interpretations of the original songs. You may use it for private study, scholarship, research or language learning purposes only