» » »

Bajo Control Tabs (ver.1)

Artists:  A B C D E F G H I J K L M N O P Q R S T U V W X Y Z # 

Bajo Control Tabs (ver.1)

Rata Blanca
Rating:
0/5 (0 votes)

Hard to play? Try these video lessons and learn fast.
                Intro:
|-------------------------------------|----------------------------------
|-------------------------------------|----------------------------------
|--------------------------------5-/4-|---------------------------------- x3
|----4-4--4-4-4---4-4----4-4---4-5-/4-|---4-4--4-4-4---4-4----4-4---4-5--
|----4-4--4-4-4---4-4----4-4---4-3-/2-|---4-4--4-4-4---4-4----4-4---4-5--
|--0-2-2-02-2-2-0-2-2-02-2-2-0-2------|-0-2-2-02-2-2-0-2-2-02-2-2-0-2-3--
PM .............................       .............................

-------------------------------------|------------------------------------|
-------------------------------------|------------------------------------|
--------------------------------5-/4-|------------------------------------|
----4-4--4-4-4---4-4----4-4---4-5-/4-|---4-4--4-4-4---4-4----4-4----------|
----4-4--4-4-4---4-4----4-4---4-3-/2-|---4-4--4-4-4---4-4----4-4-0-1-2-3--|
--0-2-2-02-2-2-0-2-2-02-2-2-0-2------|-0-2-2-02-2-2-0-2-2-02-2-2----------|
PM .............................       ................................



|------------------------------------|---------------------------------|
|------------------------------------|---------------------------------|
|------------------------------------|---------------------------------| x4
|---4-4--4-4-4---4-4----4-4---4-5-/4-|---4-4--4-4-4---4-4----4-4---4-5-|
|---4-4--4-4-4---4-4----4-4---4-5-/4-|---4-4--4-4-4---4-4----4-4---4-5-|
|-0-2-2-02-2-2-0-2-2-02-2-2-0-2-3-/2-|-0-2-2-02-2-2-0-2-2-02-2-2-0-2-3-|
PM.............................       .............................
  Arrepentidos muy tarde         beberemos el veneno
  y entre rumores de guerra      se abre la puerta al infierno
  Desinformación consumiras      que terminarás creyendo
y la humanidad sucumbirá         mientras alguien va diciendo


|------------------------------------|---------------------------------
|------------------------------------|---------------------------------
|-------------------------------5-/4-|---------------------------------
|---4-4--4-4-4---4-4----4-4---4-5-/4-|---4-4--4-4-4---4-4----4-4---4-5-
|---4-4--4-4-4---4-4----4-4---4-3-/2-|---4-4--4-4-4---4-4----4-4---4-5-
|-0-2-2-02-2-2-0-2-2-02-2-2-0-2------|-0-2-2-02-2-2-0-2-2-02-2-2-0-2-3-
PM.............................       .............................
  Bajo control                        Bajo control
-------------------------------------|-----------------------------------|
-------------------------------------|-----------------------------------|
--------------------------------5-/4-|------------------------6p5--------|
----4-4--4-4-4---4-4----4-4---4-5-/4-|---4-4--4-4-4---4-7p4-------7------|
----4-4--4-4-4---4-4----4-4---4-3-/2-|---4-4--4-4-4---4-----5-------7-/9-|
--0-2-2-02-2-2-0-2-2-02-2-2-0-2------|-0-2-2-02-2-2-0-2------------------|
PM.............................       ................
  Bajo control                        Bajo control


Antes que bebas el odio
de su poder insaciable,
cuando se incendien los bosques verás,
no importaran los culpables

Es que nada y nadie entenderá
esta ambición enferma,
es que ya no habrá ningun lugar
para los que quieren la tierra

Bajo control
Bajo control
Bajo control
Bajo control


|------------------------------------------------------|
|------------------------------------------------------|
|------------------------------------------------------| x4
|-6-------7-----4--------6-9-7--6---------7-----4------|
|-6-------7-----4--------6-9-7--6---------7-----4------|
|-4-------5-----2--------4-7-5--4---------5-----2------|
  Era espacial, transmutación,  mentes computarizadas,
armagedón en televisión, almas narcotizadas
Desde la luz es fácil saber como salir de la trampa,
visión final, profetizada que todo está bajo control


Solo:

  Intro                         Intro
|-----------------------------|----------------------------------------
|-----------------------------|----------------------------------------
|-------------------esperaban q lo saque entero???---------------------
|-----------------------------|----------------------------------------
|-----------------------------|----------------------------------------
|-----------------------------|----------------------------------------

  Intro                         Intro
------------------------------|--14-16-17-17^19v17p16-17-16-14---------
------------------------------|--------------------------------17^19~--
------------------------------|----------------------------------------
------------------------------|----------------------------------------
------------------------------|----------------------------------------
------------------------------|----------------------------------------

------------------------------|----------------9^10v9-/9----20^22v20/--
------------------------------|-------7h9p7-6--------------------------
--6--7--4--6--9-7-6--7--4--6--|--6--7----------------------------------
--6--7--4--6--9-7-6--7--4--6--|----------------------------------------
--4--5--2--4--7-5-4--5--2--4--|----------------------------------------
------------------------------|----------------------------------------

------------------------------|---------------------------------------|
------------------------------|---------------------------------------|
------------------------------|---------------------------------------|
--------------------------4---|---------------------------4----/5-----|
--3-p2-0--------3--p2-0---4---|--3-p2-0---------3--p2-0---4----/5-----|
---------2~-------------0-2---|----------2~-------------0-2----/3-----|
PM                      .                               .

Bajo:
|-------------------------------------|----------------------------------|
|-------------------------------------|----------------------------------| x6
|-------------------------------------|----------------------------------|
|--0-2-2-02-2-2-0-2-2-02-2-2-0-2-3-/2-|-0-2-2-02-2-2-0-2-2-02-2-2-0-2-3--|
Ambición de poder, corrupción,
puedes ver en tu ciudad polución        _
Fa#            Sol#      La          Si  \
Hambre, sed, enfermedad, destrucción,     > el teclado hace estos acordes
Fa#          Sol#       La          Si  _/
violación, explotación, extinción


Bajo control
Bajo control, todo, todo
Bajo control
Bajo control, uoh!

Bajo control
Bajo control, todo, todo
Bajo control
Bajo control, uah!

Bajo control, tierra, aire y mar
Bajo control, el reino animal
Bajo control, la atmósfera
Bajo control. hasta la guerra y la paz

Bajo control, la humanidad
Bajo control, la mediocridad
Bajo control, todo el mundo está
Bajo control, todo, todo

Bajo controooooooooooooooooooool
            
Hard to play? Try these video lessons and learn fast. | Correct




comments powered by Disqus
↑ Back to top | Tablatures and chords are parodies/interpretations of the original songs. You may use it for private study, scholarship, research or language learning purposes only