» » »

Aun Estas En Mis Sueos Bass tabs (ver.1)

Artists:  A B C D E F G H I J K L M N O P Q R S T U V W X Y Z # 

Aun Estas En Mis Sueos Bass tabs (ver.1)

Rata Blanca
Rating:
2/5 (1 vote)

Hard to play? Try these video lessons and learn fast.
                intro
------------------------------------------------|
------------------------------------------------|
----------------44443---------------------------|     +2
-3----7----3-------------3-----7----3----000000-|
verso
------------------------------------------------------|
------------------------------------------------------|
---------------2--22---2--22---4--44------------------|
-0--00--0--00-------------------------4--44---2--22---|
pre choruos
-------------------------------------------------|
-------------------------------------------------|
----------2---3---5---6----8---------------------|
--2---0------------------------------------------|
choruos
------------------------------------------------------------------------|
------------------------------------------------------------------------|
--------------------------------2--22----2--22---3--33------------------|
-4--44---4--44---0--00--0--00---------------------------3---33---3--33--|


KE PXD2 ARRIVA EL PUTO METALLLLLLL MARICONES DESDE TIJUANA
VIVAN KON WUIDD
            
Hard to play? Try these video lessons and learn fast. | Correct




comments powered by Disqus
↑ Back to top | Tablatures and chords are parodies/interpretations of the original songs. You may use it for private study, scholarship, research or language learning purposes only