>
 >
Aria En Sol De La Suite 13

Aria En Sol De La Suite 13 Guitar Tabs

Rata Blanca - Aria En Sol De La Suite 13 chords, tabs, tablatures, lyrics

Guitar lessons | Add/correct | Request | Top 50 tabs Artists:  A B C D E F G H I J K L M N O P Q R S T U V W X Y Z 0-9

Aria En Sol De La Suite 13 Guitar Tabs – Rata Blanca

CD, Sheet music, Poster

Do you like Aria En Sol De La Suite 13? Share with your friends now
Tabs

ARIA EN SOL, DE LA SUITE #13 
As recorded by Rata Blanca
(From the 1996 Album EN VIVO EN BUENOS AIRES)

        

Words by Cancion Instrumental Music by J.S.Bach

Gtr I (E A D G B E) - 'Walter'

 Seccion 1
  Q=80
  N.C.
 4/4
  Gtr I
   ~~                                 ~~
   W           +Q    +S   S  S  S  a  H       +Q    E  E  E  E  E  E
|-----------|------------------------------|-------19----------------|
|-19--------|-(19)--(19)-17p15-17-17S19----|-(19)-----20-17----------|
|-----------|------------------------------|----------------19-18-19-|
|-----------|------------------------------|-------------------------|
|-----------|------------------------------|-------------------------|
|-----------|------------------------------|-------------------------|


  N.C.
   ~~                 ~~
   H     Q   Q     a  W           +E   E  E  E  E  E  E  E
|---------------|-15S17--------|-(17)----------------17-15-|
|---------------|--------------|------19-------17-16-------|
|-18----16--14--|--------------|---------17-16-------------|
|---------------|--------------|---------------------------|
|---------------|--------------|---------------------------|
|---------------|--------------|---------------------------|


  N.C.
   ~~                                      ~~~
   W           +E   E  E  E  E  E  E  E    H.       E  E
|-15--------|-(15)----------------15-14-|-14-------16-17-|
|-----------|------17-------15-14-------|----------------|
|-----------|---------16-14-------------|----------------|
|-----------|---------------------------|----------------|
|-----------|---------------------------|----------------|
|-----------|---------------------------|----------------|


  N.C.
                                                        ~~
   Q   S  S  a  Q   Q   E    E  E  S  S  E  E  Q   E    W
|-------------------------|--------------------------|-------|
|-15--15h17-17S19--17--15-|-14-12-12-14-15-15-14--12-|-------|
|-------------------------|--------------------------|-14----|
|-------------------------|--------------------------|-------|
|-------------------------|--------------------------|-------|
|-------------------------|--------------------------|-------|


 Seccion 2
  N.C.
   ~~                             ~~~
   H     +E   S  S  S  S  E    a  H.       Q
|---------------------------|-15S17-----------|
|-14----(14)-15-14-12-14----|-----------------|
|------------------------14-|-------------17--|
|---------------------------|-----------------|
|---------------------------|-----------------|
|---------------------------|-----------------|


   Q   a  Q.    E  T  T  T  T  +E
|-----17S19----17-15h17p15-14-(14)-|
|----------------------------------|
|-16-------------------------------|
|----------------------------------|
|----------------------------------|
|----------------------------------|


  N.C.
   Q   Q   +S   S  S  S  E  E
|-14--15--(15)-14-------------|
|-----------------17-15-14----|
|--------------------------16-|
|-----------------------------|
|-----------------------------|
|-----------------------------|


   E  E  Q.    E  a  Q     +E   E  a  Q   S  S  E  Q
|-----------------------|------14-14h15--15-14-15-14--|
|-------14----15-15S17--|-(17)------------------------|
|-15-16-----------------|-----------------------------|
|-----------------------|-----------------------------|
|-----------------------|-----------------------------|
|-----------------------|-----------------------------|


                                                         Seccion 3
  N.C.                                                    N.C.
                                         ~~~               ~~
               |--3--|
   E  E  E  E  E  E  E  E  E    T  T  T  H.       +T  E    H     +E   E  E  E
|----------------------------|--------------------------|------------14-------|
|-17-15-14----14-15-17-15-14-|-14-15-14-----------------|-15----(15)----17-15-|
|----------16----------------|----------16-------(16)---|---------------------|
|----------------------------|--------------------------|---------------------|
|----------------------------|--------------------------|---------------------|
|----------------------------|--------------------------|---------------------|


  N.C.
      ~~~                                                      ~~
   a  H.       S  E  S    S  S  E  Q   Q   E  E    Q.       E  H
|-17S19-------17-16-14-|-14----17---------------|-------------------|
|----------------------|----17------------14-15-|-14tr15------------|
|----------------------|----------14--16--------|----------16-14----|
|----------------------|------------------------|-------------------|
|----------------------|------------------------|-------------------|
|----------------------|------------------------|-------------------|


 Seccion 4
  N.C.
   Q   E  E  E  E  E  E    Q   E  E  E  E  E  E    Q   E  E  E  E  E  E
|-----------------14----|-----------------15-14-|-14--------------17-15-|
|--------------14----17-|-17--14----14-16-------|-----16-14-16-17-------|
|-14--16-17-16----------|--------16-------------|-----------------------|
|-----------------------|-----------------------|-----------------------|
|-----------------------|-----------------------|-----------------------|
|-----------------------|-----------------------|-----------------------|


  N.C.
                               ~~~                     ~~
   Q.      +S   S  H           H     Q   E  E    E  E  H     +E   S  S
|-17b19---(17)-15-17b19----|---------------15-|-15----14----(14)-16h17-|
|--------------------------|------------17----|----17------------------|
|--------------------------|-/14----18--------|------------------------|
|--------------------------|------------------|------------------------|
|--------------------------|------------------|------------------------|
|--------------------------|------------------|------------------------|


                                  H.=H
  N.C.
   ~~                        ~~
   H     +E   E  E  E    Q   H     Q     E  E  Q.    E  Q
|------------14-17S20-|-20--19--------|-------15----14-15--|
|-15----(15)----------|-----------15--|-14-17--------------|
|---------------------|---------------|--------------------|
|---------------------|---------------|--------------------|
|---------------------|---------------|--------------------|
|---------------------|---------------|--------------------|


 Seccion 5
  N.C.
                                                      ~~
    E  E  E  S  S  E  Q   E    S  S  Q   E  Q   Q     W
|-----------14h15-15-14-----|----------------------|-------*|
|-----15-----------------17-|-15-14-----14-15--14--|-15----*|
|-/14----18-----------------|-------16-------------|-------*|
|---------------------------|----------------------|-------*|
|---------------------------|----------------------|-------*|
|---------------------------|----------------------|-------*|



Duration Legend
---------------
W - whole; H - half; Q - quarter; E - 8th; S - 16th; T - 32nd; X - 64th; a - acciaccatura
+ - note tied to previous; . - note dotted; .. - note double dotted
Uncapitalized letters represent notes that are staccato (1/2 duration)
Irregular groupings are notated above the duration line
Duration letters will always appear directly above the note/fret number it represents the
duration for.  Duration letters with no fret number below them represent rests.  Multi-
bar rests are notated in the form Wxn, where n is the number of bars to rest for.  Low
melody durations appear below the staff

Tablature Legend
----------------
 h   - hammer-on
 p   - pull-off
 b   - bend
 pb  - pre-bend
 r   - bend release (if no number after the r, then release immediately)
 /\  - slide into or out of (from/to "nowhere")
 s   - legato slide
 S   - shift slide
 - natural harmonic
[n]  - artificial harmonic
n(n) - tapped harmonic
 ~   - vibrato
 tr  - trill
 T   - tap
 TP  - trem. picking
 PM  - palm muting
\n/  - tremolo bar dip; n = amount to dip
 \n  - tremolo bar down
 n/  - tremolo bar up
/n\  - tremolo bar inverted dip
 =   - hold bend; also acts as connecting device for hammers/pulls
 <> - volume swell (louder/softer)
 x   - on rhythm slash represents muted slash
 o   - on rhythm slash represents single note slash

Misc Legend
-----------
 |  - bar
||  - double bar
||o - repeat start
o|| - repeat end
*|  - double bar (ending)
 :  - bar (freetime)
 $  - Segno
 &  - Coda
Tempo markers -  = BPM(8/16=s8/s16), where s8 = swing 8ths, s16 = swing 16ths





Comments


Popular Rata Blanca tabs & chords
Aun Estas En Mis Sueos Bass Tabs
Mujer Amante 2 Bass Tabs
Abeja Reina Tabs
Abrazando El Rockn Roll Tabs
El Sueno De La Gitana Tabs
La Cancion Del Guerrero Tabs
La Otra Cara De La Moneda Tabs
Mujer Amante 1 Tabs
Aun Estas En Mis Suieos Ukulele
Pastel De Rockas Ukulele


Song lyrics



↑ Back to top | Tablatures and chords are parodies/interpretations of the original songs. You may use it for private study, scholarship, research or language learning purposes only
© 2014 AZChords.com Contact us | Privacy policy | DMCA | Add/correct tabs | Request tabs | Top 50 tabs