» » »

Rata Blanca, Abrazando El Rockn Roll Tabs (ver.1)

Artists:  A B C D E F G H I J K L M N O P Q R S T U V W X Y Z # 

Abrazando El Rockn Roll Tabs (ver.1)

Rata Blanca Tabs
 Rating:
4/5 (4 votes)
Abrazando El Rockn Roll lessons Tabs too difficult? Try these video lessons and learn fast
                INTRO:
|---------------------------------|------------------------|
|---------------------------------|------------------------|
|----------9---9-------5---5------|-9---9-------5---5------|
|----------7---7----7--3---3----7-|-7---7----7--3---3----7-|
|------3-----0---0--5----0---0--5-|---0---0--5----0---0--5-|
|-0--3---3------------------------|------------------------|

|---------------------------------|------------------------|
|---------------------------------|------------------------|
|----------9---9-------5---5------|-9---9-------5---5------|
|----------7---7----7--3---3----7-|-7---7----7--3---3--7-7-|
|------3-----0---0--5----0---0--5-|---0---0--5----0----5-5-|
|-0--3---3------------------------|------------------------|

Riff A:
|------------|
|------------|
|----5--7--5-|x2
|-7--5--5--3-|
|-7--3-------|
|-5----------|

Riff B:
|-----|---------------------------------------------------|
|-----|---------------------------------------------------|
|-----|-------------------------7---7-------5---5---------|x2
|-5-5-|-2---2-------5---5-------5---5-------3---3-------2-|
|-3-3-|-0-0-0-0-0-0-3-0-3-0-0-0---0---0-0-0---0---0-0-0-0-|
|-----|---------------------------------------------------|

Riff C:
|-------|---------------------------------------|
|-------|---------------------------------------|
|-------|---5-----5-5-4-5-4-5-4---5-5-----5-4-5-|
|-------|-5-3-5---5-5-5-5-5-5-5---5-5-----5-5-5-|
|-----0-|-3---3-5---------------7-----7-5-------|
|-1-3---|-------3---------------5-----5-3-------|

|-----|---------------------------------------|
|-----|---------------------------------------|
|-----|---5-----5-5-4-5-4-5-4---5-5-----5-4-5-|
|-----|-5-3-5---5-5-5-5-5-5-5---5-5-----5-5-5-|
|-----|-3---3-5---------------7-----7-5-------|
|-1-3-|-------3---------------5-----5-3-------|

Riff D:
|-------|---------------------------|
|-------|---------------------------|
|-------|-------------------------5-|
|-------|-----------------------7-3-|
|-------|-3---3-------3---3-----5---|
|-6-5-3-|-1-1-1-1-1-1-1-1-1-1-1-----|

|------------------------|------------------------|
|------------------------|------------------------|
|-9---9-------5---5------|-9---9-------5---5------|
|-7---7----7--3---3----7-|-7---7----7--3---3--7-7-|
|---0---0--5----0---0--5-|---0---0--5----0----5-5-|
|------------------------|------------------------|

REPITE Riff A,Riff B,
Riff C Y Riff D

Riff E:
|-------------------------|
|-------------------------|
|---------------------5---|x3
|---------------------3-7-|
|-2-2-2-2-2-2-2-2-2-2---5-|
|-0-0-0-0-0-0-0-0-0-0-----|

Riff F:
|-------------3-|
|-------------3-|
|-------------0-|
|---------------|
|---------------|
|-10-8-7-5-3----|

Riff G:
|----------------------------------------------|
|----------------------------------------------|
|--5--------4--------5--------4--------5---4---|
|-----3--3-----3--3-----3--3-----3--3—---3---3-|
|----------------------------------------------|
|----------------------------------------------|

|----------------------------------------------|
|----------------------------------------------|x3
|--5--------4--------5--------4--------5---4---|
|-----5--5-----5--5-----5--5-----5--5----5---5-|
|----------------------------------------------|
|----------------------------------------------|

|--------------------------------------------------|
|--------------------------------------------------|
|--5---------4---------5---------4---------5---4---|
|--3-3-3-3-3---3-3-3-3---3-3-3-3---3-3-3-3---3---3-|
|--------------------------------------------------|
|--------------------------------------------------|

|--------------------------------------------------|
|--------------------------------------------------|
|--5---------4---------5---------4---------5---4---|
|----5-5-5-5---5-5-5-5---5-5-5-5---5-5-5-5---5---5-|
|--------------------------------------------------|
|--------------------------------------------------|

BASE DEL SOLO:A5 F5 G5 x4

REPITE 'Riff C'
            
Submit corrections

comments powered by Disqus
↑ Back to top | Rata Blanca Tabs for Abrazando El Rockn Roll. Lyrics for acoustic guitar and electric guitar. Tablatures and chords are parodies/interpretations of the original songs. You may use it for private study, scholarship, research or language learning purposes only