» » »

Rasmus Seebach, Glad Igen Tabs (ver.1)

Artists:  A B C D E F G H I J K L M N O P Q R S T U V W X Y Z # 

Glad Igen Tabs (ver.1)

Rasmus Seebach Tabs
 Rating:
4/5 (4 votes)
Glad Igen lessons Tabs too difficult? Try these video lessons and learn fast
                

Intro:

  D                         D
|------------------------|-------------------------|
|-------3------------3---|--------3------------3---|
|----2-----2------2------|-----2-----2------2------|
|-0----------------------|--0----------------------|
|------------------------|-------------------------|
|------------------------|-------------------------|



Vers: (| D | F#m | D | F#m |) x2

  D                         F#m
|------------------------|-------------------------|  \
|-------3------------3---|------2------------------|  |
|----2-----2------2------|---------2-2-------------|  |
|-0----------------------|-------------------------|  |
|------------------------|----3--------------------|  |
|------------------------|--2----------------------|  |
                                                      |
                                                       > x2
  D                         F#m                       |
|------------------------|-------------------------|  |
|-------3------------3---|------2------------------|  |
|----2-----2------2------|---------2-2-------------|  |
|-0----------------------|---------------3-3-------|  |
|------------------------|----3---------------3-3--|  |
|------------------------|--2----------------------|  /



Bridge: | G | Bm | G | Bm A |
        (Og vi ku' blive lidt...)
        (Jeg kan ik' leve med...)


Chorus: | D | Bm | D | A | x2



"Det er ikke nogens fejl...": | G | A | D | Bm |
                              | G | A | F#m | D |

Riff: 
Play this part after "Det er ikke nogens fejl..."

 D                 D                  D                  A
|---5-------------|----5-------------|----5-------------|------------------|
|------7------7---|-------7------7---|-------7----------|------------------|
|-7---------7---7-|--7---------7---7-|--7---------------|---6--------------|
|-----------------|------------------|------------------|------------------|
|-----------------|------------------|------------------|------------------|
|-----------------|------------------|------------------|------------------|



Outro:

  D                         D
|------------------------|-------------------------|-----------------------|
|-------3------------3---|--------3------------3---|-----------------------|
|----2-----2------2------|-----2-----2------2------|-----------------------|
|-0----------------------|--0----------------------|--0--------------------|
|------------------------|-------------------------|-----------------------|
|------------------------|-------------------------|-----------------------|
            
Submit corrections

comments powered by Disqus
↑ Back to top | Rasmus Seebach Tabs for Glad Igen. Lyrics for acoustic guitar and electric guitar. Tablatures and chords are parodies/interpretations of the original songs. You may use it for private study, scholarship, research or language learning purposes only