» » »

Sommer I Europa Bass tabs (ver.1)

Artists:  A B C D E F G H I J K L M N O P Q R S T U V W X Y Z # 

Sommer I Europa Bass tabs (ver.1)

Rasmus Noehr
Rating:
0/5 (0 votes)

Hard to play? Try these video lessons and learn fast.
                Sommer i Europa (Rasmus Noehr)

Here¡¦s the a bass tab to Rasmus Noehr ;)

It¡¦s my first bass tab, so please rate ƒºthank¡¦s¡K.

Intro;
G------------------------------------------------------------------------------|
D------------------------------------------------------------------------------|
A---5-55-/-19-1919-----5-55-/-7-77---------------------------------------------|
E------------------------------------------------------------------------------|x2


Basriff, before vers;
G------------------------------------------------------------------------------|
D-------------7----------------------------------------------------------------|
A------5-7-5-------------------------------------------------------------------|
E--5-7-------------------------------------------------------------------------|


Vers;
G-----------------------------------------------------------------------------|
D--------------5--4-4-------------2--2-3-2------------------------------------|
A---------5-7------------2-2--2-------------4-2-------------------------------|
E---5--5-------------------------------------------5--------------------------|


Right before Chorus;
G------------------------------------------------------------------------------|
D------------------------------------------------------------------------------|
A--5-/-19-------5-/-7----------------------------------------------------------|
E------------------------------------------------------------------------------|x2


Chorus;
G-----------------------------------------------------------------------------|
D--------------5--4--4-------------2--2-3-2-----------------------------------|
A---------5-7-------------2-2--2-------------4-2------------------------------|
E---5--5-------------------------------------------5--------------------------|x2

Right before Chorus again, x4
Chorus x6
Solo(like vers and Chorus) x4

Outro;
G------------------------------------------------------------------------------|
D--------------5--4--4-------------2--2-3-2--------------------------7---------|
A---------5-7-------------2-2--2-------------4-2-------------------------------|
E---5--5-------------------------------------------5------1---3-----5----------|


I¡¦m sure it¡¦s right, ƒº
Anders(basse) 16 years
            
Hard to play? Try these video lessons and learn fast. | Correct




comments powered by Disqus
↑ Back to top | Tablatures and chords are parodies/interpretations of the original songs. You may use it for private study, scholarship, research or language learning purposes only