» » »

Stranger Tabs (ver.1)

Artists:  A B C D E F G H I J K L M N O P Q R S T U V W X Y Z # 

Stranger Tabs (ver.1)

Rasmus
Rating:
0/5 (0 votes)

Hard to play? Try these video lessons and learn fast.
                Band: The Rasmus

Hi! This is my first post on this site! I tried to pick up by ear tabs from a
song by The Rasmus "Stranger". This tabs for acoustic version.


E------------------------------------------------------------------------------|
B------------------------------------------------------------------------------|
G------------------------------------------------------------------------------|
D-------7---------7---------7--------7----------7----------7--------7----------|
A----------7---------7-------------------7----------7-------------------7------|
E----5--------5----------5-------5-----------5----------5-------0-----------0--|

E-------------------------------------------------------------------------------|
B-------------------------------------------------------------------------------|
G-------------------------------------------------------------------------------|
D-7--------7--------6-----------6--------6-------7---------7----------7-------7-|
A----7-----------------7-----------7----------------9---------9-----------------|
E-------0-------0----------0----------0------9---------9----------9--------9----|

E------------------------------------------------------------------------------|
B------------------------------------------------------------------------------|
G------------------------------------------------------------------------------|
D---------7----------7--------7----------7-----------7-------6-----------6-----|
A--9---------9--------------------7----------7-------------------7----------7--|
E-----9----------9-------0------------0----------0-------0-----------0---------|

E------------------------------------------------------------------------------|
B------------------------------------------------------------------------------|
G------------------------------------------------------------------------------|
D------6-----------------------------------------------------------------------|
A------------------------------------------------------------------------------|
E--0---------------------------------------------------------------------------|


Here are the lyrics:

I can't believe that it's over
I lost this one
Tonight I'll run free
I wish I had someone to guide me
And pull me up
'Cause the lights can't find... me

Stranger... Take me home

I wish I had already found You
I've wasted time
My mind had grown black
You'll safe my life
You brought my faith back

Stranger... Take me home

Here, a small shift to chords:

E-----|
B-----|
G-----|
D--7--|
A--7--| x(9)
E--5--|


            D    E
And I will love you
            A     E
Only for tonight
          D    E
I don't know You
              A   E
But it's all right
         D   E   F#m   E
Let me show you heaven
F#m   E    D    E
Stranger, take me home

A                         E
Somehow I feel like I've known you all my life
     F#m                   D         E
And we have been together since the dawn of time
A                        E
I've been missing vital pieces of the puzzle
F#m                        D     E
You might be the answer stranger

And I will love you
Only for tonght
I don't know You
But it's all right
Let me show you heaven

Stranger, take me home
Stranger... take me home

End!
Please evaluate and comment!
Enjoy!
            
Hard to play? Try these video lessons and learn fast. | Correct




comments powered by Disqus
↑ Back to top | Tablatures and chords are parodies/interpretations of the original songs. You may use it for private study, scholarship, research or language learning purposes only