» » »

Still Standing Tabs (ver.1)

Artists:  A B C D E F G H I J K L M N O P Q R S T U V W X Y Z # 

Still Standing Tabs (ver.1)

Rasmus
Rating:
0/5 (0 votes)

Hard to play? Try these video lessons and learn fast.
                Artist : The Rasmus
Song : Still Stading
Album : Dead Letters

GreAt song and great album...

Verse:(bass)
I wish you were here tonight with me to see the northern lights
I wish you were here tonight with me
I wish I had could have you by my side tonight when the sky is burning
I wish I could have you by my side

Then:
E|-----------------------|
B|-----------------------|
G|-----------------------|
D|-----------------------|
A|-1---------1-----1-3-5-|
E|----3---------3--------|

Pauli plays this in a concert:
                       .............
E|---------------------------------------------------------------------|
B|---------------------------------------------------------------------|
G|---------------------------------------------------------------------|
D|------------------------------------0h5-0h2-x-x-x--------------------|x2
A|-1---------1-----1-3-5-5-5-5-5-5-5----------------1------1----1-3-5--|
E|----3---------3--------------------------------------3------3--------|

Prechorus:
E|----------|
B|----------|
G|-3~---5~--|
D|-3~---5~--|
A|-1~---3~--|
E|----------|
Cause I've been down...

E|----------------------------|
B|----------------------------|
G|-3~---5-x-x-5-x-x-5-x-x-5-5-|
D|-3~---5-x-x-5-x-x-5-x-x-5-5-|
A|-1~---3-x-x-3-x-x-3-x-x-3-3-|
E|----------------------------|

Chorus:
E|-------------------------------|
B|-------------------------------|
G|-7-7-3-3-5-5-----3-5-7-----5-5-|
D|-7-7-3-3-5-5-7-7-3-5-7-5-5-5-5-|x2
A|-5-5-1-1-3-3-7-7-1-3-5-5-5-3-3-|
E|-------------5-5-------3-3-----|


E|---------------------------------|
B|---------------------------------|
G|-3-3-3-3-3-----------------------|
D|-3-3-3-3-3-7-x-x-7-x-x-7-x-x-7-7-|
A|-1-1-1-1-1-7-x-x-7-x-x-7-x-x-7-7-|
E|-----------5-x-x-5-x-x-5-x-x-5-5-|


Verse 2:(bass)
Burns like a thousand stars, though you are light years away 
Burns like a thousand stars or more 

Then:
E|-----------------------|
B|-----------------------|
G|-----------------------|
D|-----------------------|
A|-1---------1-----1-3-5-|
E|----3---------3--------|

Prechorus:
E|----------|
B|----------|
G|-3~---5~--|
D|-3~---5~--|
A|-1~---3~--|
E|----------|
Cause I've been down...

E|----------------------------|
B|----------------------------|
G|-3~---5-x-x-5-x-x-5-x-x-5-5-|
D|-3~---5-x-x-5-x-x-5-x-x-5-5-|
A|-1~---3-x-x-3-x-x-3-x-x-3-3-|
E|----------------------------|

Chorus:
E|-------------------------------|
B|-------------------------------|
G|-7-7-3-3-5-5-----3-5-7-----5-5-|
D|-7-7-3-3-5-5-7-7-3-5-7-5-5-5-5-|x2
A|-5-5-1-1-3-3-7-7-1-3-5-5-5-3-3-|
E|-------------5-5-------3-3-----|


E|---------------------------------|
B|---------------------------------|
G|-3-3-3-3-3-----------------------|
D|-3-3-3-3-3-7-x-x-7-x-x-7-x-x-7-7-|
A|-1-1-1-1-1-7-x-x-7-x-x-7-x-x-7-7-|
E|-----------5-x-x-5-x-x-5-x-x-5-5-|


Bridge:
Something sacred, something so beautiful
Something quiet to ease my mind
When the pressure's taking me over and over

.................P.M................
E|---------------------------------|
B|---------------------------------|
G|-3-3-3-3-3-3-3-3-5-5-5-5-5-5-5-5-|
D|-3-3-3-3-3-3-3-3-5-5-5-5-5-5-5-5-|X4
A|-1-1-1-1-1-1-1-1-3-3-3-3-3-3-3-3-|
E|---------------------------------|
............
E|---------------------------------|
B|---------------------------------|
G|-5-5-5-5-5-----------------------|
D|-5-5-5-5-5-7-x-x-7-x-x-7-x-x-7-7-|
A|-3-3-3-3-3-7-x-x-7-x-x-7-x-x-7-7-|
E|-----------5-x-x-5-x-x-5-x-x-5-5-|

Chorus:x2
E|-------------------------------|
B|-------------------------------|
G|-7-7-3-3-5-5-----3-5-7-----5-5-|
D|-7-7-3-3-5-5-7-7-3-5-7-5-5-5-5-|x2
A|-5-5-1-1-3-3-7-7-1-3-5-5-5-3-3-|
E|-------------5-5-------3-3-----|


E|---------------------------------|
B|---------------------------------|
G|-3-3-3-3-3-----------------------|
D|-3-3-3-3-3-7-x-x-7-x-x-7-x-x-7-7-|
A|-1-1-1-1-1-7-x-x-7-x-x-7-x-x-7-7-|
E|-----------5-x-x-5-x-x-5-x-x-5-5-|

End:
E|---------------------------------|
B|---------------------------------|
G|-3-3-3-3-3-----------------------|
D|-3-3-3-3-3-7-x-x-7-x-x-7-x-x-7-7-|
A|-1-1-1-1-1-7-x-x-7-x-x-7-x-x-7-7-|
E|-----------5-x-x-5-x-x-5-x-x-5-5-|

Please reate!
PEACE!
            
Hard to play? Try these video lessons and learn fast. | Correct




comments powered by Disqus
↑ Back to top | Tablatures and chords are parodies/interpretations of the original songs. You may use it for private study, scholarship, research or language learning purposes only