>
 >
Since Youve Been Gone

Since Youve Been Gone Guitar Tabs

Rasmus - Since Youve Been Gone chords, tabs, tablatures, lyrics

Guitar lessons | Add/correct | Request | Top 50 tabs Artists:  A B C D E F G H I J K L M N O P Q R S T U V W X Y Z 0-9

Since Youve Been Gone Guitar Tabs – Rasmus

CD, Sheet music, Poster

Do you like Since Youve Been Gone? Share with your friends now
ChordsTabsUkulele
Artist : The Rasmus
Song : Since You've been gone
Album : Into (special edition)

Beatiful song

Intro:
E|------------------------------------------------------|
B|-------6-6-8-8------------------------6-6-8-8---------|
G|-----------------------------------------------7h8p7~-|
D|-8-7-8---------7-5-7-10-10-8-8--8-7-8-----------------|x2
A|------------------------------------------------------|
E|------------------------------------------------------|

Or:
E|----------------------------|
B|----------------------------|
G|-8-8-8--3-3-3---------------|
D|-8-8-8--3-3-3--7-7-7--5-5-5-|
A|-6-6-6--1-1-1--7-7-7--5-5-5-|x4
E|---------------5-5-5--3-3-3-|  

Verse:
E|------------------|
B|------------------|
G|----3~-8~------8~-|
D|-5~-3~-8~---5--8~-|x2
A|-5~-1~-6~---5--6~-|
E|-3~---------3-----|

Prechorus: 
E|---------------|
B|---------------|
G|-5~-8~------8~-|
D|-5~-8~-3~---8~-|
A|-3~-6~-3~---6~-|
E|-------1~------|

Chorus:
E|----------------------------|
B|----------------------------|
G|-8-8-8--3-3-3---------------|
D|-8-8-8--3-3-3--7-7-7--5-5-5-|
A|-6-6-6--1-1-1--7-7-7--5-5-5-|x4
E|---------------5-5-5--3-3-3-|

Then:
E|------------------------------------------------------|
B|-------6-6-8-8------------------------6-6-8-8---------|
G|-----------------------------------------------7h8p7~-|
D|-8-7-8---------7-5-7-10-10-8-8--8-7-8-----------------|
A|------------------------------------------------------|
E|------------------------------------------------------|

Or:
E|----------------------------|
B|----------------------------|
G|-8-8-8--3-3-3---------------|
D|-8-8-8--3-3-3--7-7-7--5-5-5-|
A|-6-6-6--1-1-1--7-7-7--5-5-5-|x2
E|---------------5-5-5--3-3-3-|   

Verse 2:
E|------------------|
B|------------------|
G|----3~-8~------8~-|
D|-5~-3~-8~---5--8~-|x2
A|-5~-1~-6~---5--6~-|
E|-3~---------3-----|

Prechorus: 
E|---------------|
B|---------------|
G|-5~-8~------8~-|
D|-5~-8~-3~---8~-|
A|-3~-6~-3~---6~-|
E|-------1~------|

Chorus:
E|----------------------------|
B|----------------------------|
G|-8-8-8--3-3-3---------------|
D|-8-8-8--3-3-3--7-7-7--5-5-5-|
A|-6-6-6--1-1-1--7-7-7--5-5-5-|x4
E|---------------5-5-5--3-3-3-|

Solo:
E|-------------------------------------|
B|-------------------------------------|
G|-8b-7-5-3-2-3-2------2-3/8-7-5-3/7b~-|
D|----------------5--5-----------------|x2
A|-------------------------------------|
E|-------------------------------------|

Chorus:
E|----------------------------|
B|----------------------------|
G|-8-8-8--3-3-3---------------|
D|-8-8-8--3-3-3--7-7-7--5-5-5-|
A|-6-6-6--1-1-1--7-7-7--5-5-5-|x8
E|---------------5-5-5--3-3-3-|


Please reate!
PEACE!





Comments


Popular Rasmus tabs & chords
Guilty Bass Tabs
No Fear 2 Bass Tabs
Rakkauslaulu Chords
Bulletlive Tabs
Dead Promises 1 Tabs
Night After Night Out Of The Shadows Tabs
Rakkauslaulu 1 Tabs
Tonight Tonight Tabs
Funeral Song Ukulele
Ufolaulu Ukulele


Song lyrics



↑ Back to top | Tablatures and chords are parodies/interpretations of the original songs. You may use it for private study, scholarship, research or language learning purposes only
© 2014 AZChords.com Contact us | Privacy policy | DMCA | Add/correct tabs | Request tabs | Top 50 tabs