» » »

Rasmus, Shot Tabs (ver.1)

Artists:  A B C D E F G H I J K L M N O P Q R S T U V W X Y Z # 

Shot Tabs (ver.1)

Rasmus Tabs
 Rating:
4/5 (4 votes)
Shot lessons Tabs too difficult? Try these video lessons and learn fast
1
                Band:The Rasmus
Album:Hide From The Sun
Intro

E------------------------------------------------------|
B------------------------------------------------------|
G-xx-xxx-----------------------------------------------|
D-xx-xxx----4----------4-----------5--------------2----|
A-xx-xxx-2-5---5--2-2-5---5---2-4-7----7----4--1-4---4-|
E-xx-xxx-----------------------------------------------|x2

Verse
                       P.M.                                   When end the first time
E----------------------------------------------------------   E------------|
B----------------------------------------------------------   B------------|
G----------------------------------------------------------   G--7/4-------|
D-4-4-4-4-4-4-4-4-4-4--5-5-5-5-5--6-6-6-6-6--9-9-9-9-9-----X2 D------------|
A-2-2-2-2-2-2-2-2-2-2--2-2-2-2-2--4-4-4-4-4--7-7-7-7-7-----   A------------|
E----------------------------------------------------------   E------------|

Verse Continued-guitar changes

                       P.M.
E---------------------------------------------|
B---------------------------------------------|
G---------------------------------------------|
D-4-4-4-4-4-----------------------------------|
A-2-2-2-2-2--7-7-7-7-7--5-5-5-5-5--4-4-4-4-4--|
E------------5-5-5-5-5--3-3-3-3-3--2-2-2-2-2--|X2

Prechorus
E----------------|
B----------------|
G----------------|
D-9/--4-4-4------|
A-9/--4-4-4------|
E-7/--2-2-2------|


Chorus-I'll take the shot...

E-----------------------------------------------------|
B-----------------------------------------------------|
G-4-4-4-4-4-4-4-4--6-6-6-6-6-6-6-6--3-3-3-3-3-3-3-3-3-|
D-4-4-4-4-4-4-4-4--5-5-5-5-5-5-5-5--2-2-2-2-2-2-2-2-2-|
A-2-2-2-2-2-2-2-2--4-4-4-4-4-4-4-4--1-1-1-1-1-1-1-1-1-|
E-----------------------------------------------------|

E-----------------------------------|
B-----------------------------------|
G-----------------------------------|
D-2-2-2-2-2-2-2-2--4-4-4-4-4-4-4-4--|
A-2-2-2-2-2-2-2-2--4-4-4-4-4-4-4-4--|
E-0-0-0-0-0-0-0-0--2-2-2-2-2-2-2-2--|X2

Intro again

E------------------------------------------------|
B------------------------------------------------|
G------------------------------------------------|
D------4----------4-----------5--------------2---|
A--2-5---5--2-2-5---5---2-4-7----7----4--1-4---4-|
E------------------------------------------------|x2


Verse 2

                       P.M.                                   When end the
                                                               first time
E----------------------------------------------------------   E------------|
B----------------------------------------------------------   B------------|
G----------------------------------------------------------   G--7/4-------|
D-4-4-4-4-4-4-4-4-4-4--5-5-5-5-5--6-6-6-6-6--9-9-9-9-9-----X2 D------------|
A-2-2-2-2-2-2-2-2-2-2--2-2-2-2-2--4-4-4-4-4--7-7-7-7-7-----   A------------|
E----------------------------------------------------------   E------------|

Verse Continued-guitar changes

                       P.M.
E---------------------------------------------|
B---------------------------------------------|
G---------------------------------------------|
D-4-4-4-4-4-----------------------------------|
A-2-2-2-2-2--7-7-7-7-7--5-5-5-5-5--4-4-4-4-4--|
E------------5-5-5-5-5--3-3-3-3-3--2-2-2-2-2--|X2

Chorus-I'll take the shot...

E-----------------------------------------------------|
B-----------------------------------------------------|
G-4-4-4-4-4-4-4-4--6-6-6-6-6-6-6-6--3-3-3-3-3-3-3-3-3-|
D-4-4-4-4-4-4-4-4--5-5-5-5-5-5-5-5--2-2-2-2-2-2-2-2-2-|
A-2-2-2-2-2-2-2-2--4-4-4-4-4-4-4-4--1-1-1-1-1-1-1-1-1-|
E-----------------------------------------------------|

E-----------------------------------|
B-----------------------------------|
G-----------------------------------|
D-2-2-2-2-2-2-2-2--4-4-4-4-4-4-4-4--|
A-2-2-2-2-2-2-2-2--4-4-4-4-4-4-4-4--|
E-0-0-0-0-0-0-0-0--2-2-2-2-2-2-2-2--|X2


Intro again


E------------------------------------------------|
B------------------------------------------------|
G------------------------------------------------|
D------4----------4-----------5--------------2---|
A--2-5---5--2-2-5---5---2-4-7----7----4--1-4---4-|
E------------------------------------------------|x2


Interlude-stars... enough broken hearts

E-------------|
B-------------|
G-------------|
D-9--7--5--4--|
A-9--7--5--4--|
E-7--5--3--2--| ..rest


Chorus-I'll take the shot...

E-----------------------------------------------------|
B-----------------------------------------------------|
G-4-4-4-4-4-4-4-4--6-6-6-6-6-6-6-6--3-3-3-3-3-3-3-3-3-|
D-4-4-4-4-4-4-4-4--5-5-5-5-5-5-5-5--2-2-2-2-2-2-2-2-2-|
A-2-2-2-2-2-2-2-2--4-4-4-4-4-4-4-4--1-1-1-1-1-1-1-1-1-|
E-----------------------------------------------------|

E-----------------------------------|
B-----------------------------------|
G-----------------------------------|
D-2-2-2-2-2-2-2-2--4-4-4-4-4-4-4-4--|
A-2-2-2-2-2-2-2-2--4-4-4-4-4-4-4-4--|
E-0-0-0-0-0-0-0-0--2-2-2-2-2-2-2-2--|X2


End with the intro

E------------------------------------------------|
B------------------------------------------------|
G------------------------------------------------|
D------4----------4-----------5--------------2---|
A--2-5---5--2-2-5---5---2-4-7----7----4--1-4---4-|
E------------------------------------------------|x2

Final two chords

E-------|
B-------|
G-------|
D-2--4--|
A-2--4--|
E-0--2--|

Very Easy! Please rate.
            
Submit corrections

comments powered by Disqus
↑ Back to top | Rasmus Tabs for Shot. Lyrics for acoustic guitar and electric guitar. 1 Tablatures and chords are parodies/interpretations of the original songs. You may use it for private study, scholarship, research or language learning purposes only