>
 >
Sail Away

Sail Away Guitar Tabs

Rasmus - Sail Away chords, tabs, tablatures, lyrics

Guitar lessons | Add/correct | Request | Top 50 tabs Artists:  A B C D E F G H I J K L M N O P Q R S T U V W X Y Z 0-9

Sail Away Guitar Tabs – Rasmus

CD, Sheet music, Poster

Do you like Sail Away? Share with your friends now
Bass TabsChordsChords v2Chords v3TabsTabs v2Tabs v3Ukulele
----------------------------------------------------------------------------------
Band: The Rasmus
Tunning: Standard

You’ll see the first guitar in chords and the second guitar in tab.
In the Intro the second guitar has some effect that I cannot figure out,
I think it’s some clean or wah wah with light distorsion, I don’t know.
In the verses the second guitar is some clean or with light distorsion too.
Also in the choruses, the second guitar has another effect too, but I cannot figure out u_u.
Anyways, just try it!

Intro:

Am  Em  Am  Em
E|--------------7--------|
B|------10----------10---|
G|----9----9------9----9-|
D|-10--------10----------|
A|-----------------------|
E|-----------------------|
                             X2
E|--------------------|
B|-----8-----10---8---|
G|---9---9------9---9-|
D|-9-------9----------|
A|--------------------|
E|--------------------|

1st Verse:

“Once upon a time
We had a lot to fight for”
Am
E|--------------7--------|
B|------10----------10---|
G|----9----9------9----9-|
D|-10--------10----------|
A|-----------------------|
E|-----------------------|

“We had a dream, we had a plan”
Em
E|--------------------|
B|-----8-----10---8---|
G|---9---9------9---9-|
D|-9-------9----------|
A|--------------------|
E|--------------------|

“Sparks in the air
We spread a lot of envy”
Am
E|--------------7--------|
B|------10----------10---|
G|----9----9------9----9-|
D|-10--------10----------|
A|-----------------------|
E|-----------------------|

“Didn’t have to care
Once upon a time”
Em
E|--------------------|
B|-----8-----10---8---|
G|---9---9------9---9-|
D|-9-------9----------|
A|--------------------|
E|--------------------|

Prechorus:

“Remember when I swore
My love is never ending”
Am
E|--------------7--------|
B|------10----------10---|
G|----9----9------9----9-|
D|-10--------10----------|
A|-----------------------|
E|-----------------------|

“And you and I
Will never die”
Em
E|--------------------|
B|-----8-----10---8---|
G|---9---9------9---9-|
D|-9-------9----------|
A|--------------------|
E|--------------------|

“Remember when I swore
Am
E|--------------7--------|
B|------10----------10---|
G|----9----9------9----9-|
D|-10--------10----------|
A|-----------------------|
E|-----------------------|


We had it all”
Em
E|--------------------|
B|-----8-----10---8---|
G|---9---9------9---9-|
D|-9-------9----------|
A|--------------------|
E|--------------------|

“We had it all”
D
E|-2-------2---------|
B|-3-------3---------|
G|-2-------2---------|
D|-x-------4---------|
A|-x-------x---------|
E|-x-------x---------|

Chorus: Both guitars play the same chords. (It’s up to you to figure out the timing)

     “I’ll sail away”
   Em             D
E|-0--------------2---------|
B|-0--------------3---------|
G|-0--------------2---------|
D|-2--------------4---------|
A|-2--------------x---------|
E|-0--------------x---------|

     “It’s time to leave”
   C                G
E|-0----------------3---------|
B|-1----------------0---------|
G|-0----------------0---------|
D|-2----------------0---------|
A|-3----------------2---------|
E|-x----------------3---------|

     “Rainy days are yours to keep”
   C         G   Am            D
E|-0---------2----0------------2-----|
B|-1---------3----1------------3-----|
G|-0---------2----2------------2-----|
D|-2---------4----2------------4-----|
A|-3---------x----0------------x-----|
E|-x---------x----x------------x-----|

    “I’ll fade away”
  Em              D
E|-0--------------2---------|
B|-0--------------3---------|
G|-0--------------2---------|
D|-2--------------4---------|
A|-2--------------x---------|
E|-0--------------x---------|

     “The night is calling my name”
   C                    G
E|-0--------------------3---------|
B|-1--------------------0---------|
G|-0--------------------0---------|
D|-2--------------------0---------|
A|-3--------------------2---------|
E|-x--------------------3---------|

     “You will stay”
   C                G
E|-0----------------3---------|
B|-1----------------0---------|
G|-0----------------0---------|
D|-2----------------0---------|
A|-3----------------2---------|
E|-x----------------3---------|

    “I’ll sail away”
  Am                 D
E|-0-----------------2---------|
B|-1-----------------3---------|
G|-2-----------------2---------|
D|-2-----------------4---------|
A|-0-----------------x---------|
E|-x-----------------x---------|

2nd Verse: (Here appears the 3rd guitar, it’s just for some details of the rhythm)

“Once upon a time
We used to burn candles”
Am
E|--------------7--------|
B|------10----------10---|
G|----9----9------9----9-|
D|-10--------10----------|
A|-----------------------|
E|-----------------------|

“We had a place to call a home”
Em
E|--------------------|
B|-----8-----10---8---|
G|---9---9------9---9-|
D|-9-------9----------|
A|--------------------|
E|--------------------|

E|--------------------|
B|-8/5----------------|
G|--------------------|
D|--------------------|
A|--------------------|
E|--------------------|

“The dream that we lived
Was better than divine”
Am
E|--------------7--------|
B|------10----------10---|
G|----9----9------9----9-|
D|-10--------10----------|
A|-----------------------|
E|-----------------------|
“Every day was like a gift
Once upon a time”
Em
E|--------------------|
B|-----8-----10---8---|
G|---9---9------9---9-|
D|-9-------9----------|
A|--------------------|
E|--------------------|

E|--------------------|
B|-5/8/5--------------|
G|--------------------|
D|--------------------|
A|--------------------|
E|--------------------|

Prechorus:

“Remember when you swore
Your love is never ending”
Am
E|--------------7--------|
B|------10----------10---|
G|----9----9------9----9-|
D|-10--------10----------|
A|-----------------------|
E|-----------------------|

“And you and I
Will never die”
Em
E|--------------------|
B|-----8-----10---8---|
G|---9---9------9---9-|
D|-9-------9----------|
A|--------------------|
E|--------------------|

E|--------------------|
B|-8/5----------------|
G|--------------------|
D|--------------------|
A|--------------------|
E|--------------------|

“Remember when you swore
Am
E|--------------7--------|
B|------10----------10---|
G|----9----9------9----9-|
D|-10--------10----------|
A|-----------------------|
E|-----------------------|

“We had it all”
Em
E|--------------------|
B|-----8-----10---8---|
G|---9---9------9---9-|
D|-9-------9----------|
A|--------------------|
E|--------------------|

“We’d never fall”
D
E|-------------------------|
B|---3h5-5/7-7-7/8-8/10-10-|
G|-7-----------------------|
D|-------------------------|
A|-------------------------|
E|-------------------------|

Repeat chorus

Bridge (1:56): Both guitars play the same chords except on the first and last part.

       “No reason to” (No electric guitar for this part)
Em x 8

    “Lie     no need to pretend”
   Am           G           F#m
E|-x-x-x-x---x-x-x-x------x-x-x-x---|
B|-x-x-x-x---x-x-x-x------x-x-x-x---|
G|-x-x-x-x---x-x-x-x------x-x-x-x---|
D|-7-7-7-7---5-5-5-5------4-4-4-4---|
A|-7-7-7-7---3-5-5-5------4-4-4-4---|
E|-5-5-5-5---3-3-3-3------2-2-2-2---|
         Palm mute 2nd guitar

       “I’m grateful to die
     F#m               B
E|-x-x-x-x----------x-x-x-x---------|
B|-x-x-x-x----------x-x-x-x---------|
G|-x-x-x-x----------4-4-4-4---------|
D|-4-4-4-4----------4-4-4-4---------|
A|-4-4-4-4----------2-2-2-2---------|
E|-2-2-2-2----------x-x-x-x---------|
         Palm mute 2nd guitar

        “To live once again”
      B                C
E|-x-x-x-x----------x-x-x-x---------|
B|-x-x-x-x----------x-x-x-x---------|
G|-4-4-4-4----------5-5-5-5---------|
D|-4-4-4-4----------5-5-5-5---------|
A|-2-2-2-2----------3-3-3-3---------|
E|-x-x-x-x----------x-x-x-x---------|
         Palm mute 2nd guitar

        “I’m fearless to fly”
      C               Am
E|-x-x-x-x-----------x-x-x-x--------|
B|-x-x-x-x-----------x-x-x-x--------|
G|-5-5-5-5-----------x-x-x-x--------|
D|-5-5-5-5-----------7-7-7-7--------|
A|-3-3-3-3-----------7-7-7-7--------|
E|-x-x-x-x-----------5-5-5-5--------|
         Palm mute 2nd guitar

       “And reach for the end”
      G                F#m
E|-x-x-x-x-------------x-x-x-x------|
B|-x-x-x-x-------------x-x-x-x------|
G|-x-x-x-x-------------x-x-x-x------|
D|-5-5-5-5-------------4-4-4-4------|
A|-5-5-5-5-------------4-4-4-4------|
E|-3-3-3-3-------------2-2-2-2------|
         Palm mute 2nd guitar

        “And reach for the end”
   F#m              B
E|----------------------------------|
B|----------------------------------|
G|----------------------------------|
D|---------------------4h5-4--------|
A|---------------------------7-6----|
E|----------------------------------|

## In this part you can play this if you’d like or continue with chorus with both 
actually I think it sound just the 1st guitar with no effect but I think this is just like 
plays in the song on live ##

(2:22)
1st Guitar: Play all the chorus

2nd Guitar: (With Wah Wah effect)

   Em      D      C    G      C      G           Am           D
E|----------------------------------------------------------------|
B|----------------------------------------------------------------|
G|-11-11h12----11h12-11------------------------------------11-12--|
D|----------12----------12--14--14-14--12--12-12-----12-14--------|
A|------------------------------------------------15--------------|
E|----------------------------------------------------------------|

   Em       D    C    G    C       Am        D
E|----------------------------------------------------------------|
B|-------------15-13----12h13-12----------------------------------|
G|-15-15-16-11-------------------12-------------------------------|
D|-------------------12-------------11h12-------------------------|
A|----------------------------------------15-14-15-14-12----------|
E|-------------------------------------------------------15-14-12-|


Interlude before last choruses: (No 2nd guitar)

“Sail Away”
C       D   D#

Last choruses: Both guitars play the same chords. (It’s up to you to figure out the timing)

    “I’ll Sail Away”
  F#m            E
E|-2-------------0-------|
B|-2-------------0-------|
G|-2-------------1-------|
D|-4-------------2-------|
A|-4-------------2-------|
E|-2-------------0-------|

    “It’s time to leave”
   D              A
E|-2--------------x------|
B|-3--------------x------|
G|-2--------------6------|
D|-4--------------7------|
A|-0--------------7------|
E|-x--------------5------|

    “Rainy days are yours to keep”
   D        A    Bm       E
E|-2--------x-----2-------0---|
B|-3--------x-----3-------0---|
G|-2--------6-----4-------1---|
D|-4--------7-----4-------2---|
A|-0--------7-----2-------2---|
E|-x--------5-----x-------0---|


       “I’ll fade away”
   F#m              E
E|-2----------------0----|
B|-2----------------0----|
G|-2----------------1----|
D|-4----------------2----|
A|-4----------------2----|
E|-2----------------0----|

     “The night is calling my name”
   D              A
E|-2--------------x------|
B|-3--------------x------|
G|-2--------------6------|
D|-4--------------7------|
A|-0--------------7------|
E|-x--------------5------|

        “You will stay”
   D              A
E|-2--------------x------|
B|-3--------------x------|
G|-2--------------6------|
D|-4--------------7------|
A|-0--------------7------|
E|-x--------------5------|

        “I’ll sail away”
   Bm             E
E|-2--------------0------|
B|-3--------------0------|
G|-4--------------1------|
D|-4--------------2------|
A|-2--------------2------|
E|-x--------------0------|

Outro (3:15)

Repeat the last choruses one time
And at the last Bm and E play them slowly
Finally play F#m one time and that’s it





Comments


Popular Rasmus tabs & chords
In The Shadows 4 Bass Tabs
Raggatip Chords
Sos Chords
Chillin At The Grotto Tabs
Heart Of Misery Tabs
Heartbreaker 1 Tabs
Shot Tabs
Chill Ukulele
Sail Away Ukulele
Ten Black Roses Ukulele


Song lyrics



↑ Back to top | Tablatures and chords are parodies/interpretations of the original songs. You may use it for private study, scholarship, research or language learning purposes only
© 2014 AZChords.com Contact us | Privacy policy | DMCA | Add/correct tabs | Request tabs | Top 50 tabs