» » »

Rasmus, Play Dead Tabs (ver.1)

Artists:  A B C D E F G H I J K L M N O P Q R S T U V W X Y Z # 

Play Dead Tabs (ver.1)

Rasmus Tabs
 Rating:
4/5 (4 votes)
Play Dead lessons Tabs too difficult? Try these video lessons and learn fast
1
                Artist : The Rasmus
Song : Play dead
Album : Into (special edition)
 
A nice cover of Björk

Intro (wah-wah effect)
E|-------------------------------------------------------|
B|-------------------------------------------------------|
G|--14-14-11-11-7-7-6-6-4h6-4h6-4h6-4h6-4h6-4h6-4h6-4h6--|x2
D|-------------------------------------------------------|
A|-------------------------------------------------------|
E|-------------------------------------------------------|

After 2nd time:
E|------------------------------------------|
B|------------------------------------------|
G|--/9-7-6~-/9-7-6~-/9-7-6-7-6-7-6-7/9/11---|
D|------------------------------------------|
A|------------------------------------------|
E|------------------------------------------|

Verse:

All the verse this note:
E|----------|
B|----------|
G|---11~----|
D|----------|
A|----------|
E|----------|

And:(distortion)
E|------------------------------|
B|------------------------------|
G|-11^--------------------------|
D|-----2~--2~-x-x-x-x-0h2-2~~---|
A|-----2~--2~-x-x-x-x-0h2-2~~---|
E|-----0~--0~-x-x-x-x-0h0-0~~---|
The city of feeeeeaaaar... 

E|---------------------------------------------------------|
B|---------------------------------------------------------|
G|--14-14-11-11-7-7-6-6-4h6-4h6-4h6-4h6-4h6-4h6-4h6-4h6-/9-|x2
D|---------------------------------------------------------|
A|---------------------------------------------------------|
E|---------------------------------------------------------|

Verse 2 

E|-----------------|
B|-----------------|
G|-11~--9~--11~~~--|
D|-----------------|
A|-----------------|
E|-----------------|

E|------------------------------|
B|------------------------------|
G|-11^--------------------------|
D|-----2~--2~-x-x-x-x-0h2-2~~---|
A|-----2~--2~-x-x-x-x-0h2-2~~---|
E|-----0~--0~-x-x-x-x-0h0-0~~---|
Caress every ache....

Then:
E|-------------------------------------------------------|
B|-------------------------------------------------------|
G|--14-14-11-11-7-7-6-6-4h6-4h6-4h6-4h6-4h6-4h6-4h6-4h6--|x2
D|-------------------------------------------------------|
A|-------------------------------------------------------|
E|-------------------------------------------------------|

After 2nd time:
E|------------------------------------------|
B|------------------------------------------|
G|--/9-7-6~-/9-7-6~-/9-7-6-7-6-7-6-7/9/11---|
D|------------------------------------------|
A|------------------------------------------|
E|------------------------------------------|

Chorus:

E|-------------------------------------------------------|
B|-------------------------------------------------------|
G|--14-14-11-11-7-7-6-6-4h6-4h6-4h6-4h6-4h6-4h6-4h6-4h6--|x4
D|-------------------------------------------------------|
A|-------------------------------------------------------|
E|-------------------------------------------------------|
I play dead...

End:

E|--------------------------------------------------------|
B|--------------------------------------------------------|
G|--14-14-11-11-7-7-----4h6-4h6-4h6-4h6-4h6-4h6-4h6-4h6-4-|
D|------------------6-6-----------------------------------|
A|--------------------------------------------------------|
E|--------------------------------------------------------|


Easy! Please reate!
            
Submit corrections

comments powered by Disqus
↑ Back to top | Rasmus Tabs for Play Dead. Lyrics for acoustic guitar and electric guitar. 1 Tablatures and chords are parodies/interpretations of the original songs. You may use it for private study, scholarship, research or language learning purposes only