» » »

Rasmus, Open My Eyes Tabs (ver.1)

Artists:  A B C D E F G H I J K L M N O P Q R S T U V W X Y Z # 

Open My Eyes Tabs (ver.1)

Rasmus Tabs
 Rating:
4/5 (4 votes)
Open My Eyes lessons Tabs too difficult? Try these video lessons and learn fast
1
                Artist : The Rasmus
Song : Open my eyes
Album : Hide from the sun (UK)
 
Beautiful song!

Intro (acoustic)
Bm-A-D-A

Then (distortion):
E|-------------------------------------------------------------------------|
B|-------------------------------------------------------------------------|
G|-------------------------------------------------------------------------|
D|-------------------------------------------------------------------------|
A|--7-9-7-9-x-x-5-5-7-5-7-5-7-x-x-5-5-7^-7-9-7-9-x-x-5-5-7-5-7-5-7-x-x-5-5-|
E|--5-7-5-7-x-x-3-3-5-3-5-3-5-x-x-3-3-5--5-7-5-7-x-x-3-3-5-3-5-3-5-x-x-3-3-|


Verse :

This is all the verse (electric)
----------------------------------P.M.--------------------------------------
E|-------------------------------------------------------------------------|
B|-------------------------------------------------------------------------|
G|-------------------------------------------------------------------------|
D|-------------------------------------------------------------------------|
A|-------------------------------------------------------------------------|
E|--5-7-5-7-x-x-3-3-5-3-5-3-5-x-x-3-3-5--5-7-5-7-x-x-3-3-5-3-5-3-5-x-x-3-3-|

Acoustic:
Bm              A
Fear is like a tree
            Bm             A
That grows inside of my silently
     Bm              A
And you could be my blood
          Bm           A
And be a part of me secretly

             Bm             
I've lost a war
             A
I've lost a fight
              Bm
I've killed a man
          A
Wasted a life

Prechorus:
E|-----|
B|-----|
G|-----|
D|-5-5-|
A|-5-5-|
E|-3-3-|

Chorus:
E|-----------------------------------------------------------------|
B|-----------------------------------------------------------------|
G|-4-4-----7-7-----4-4-----7-7-----4-4-----7-7-----4-4------7-7-4-4|x2
D|-4-4-5-5-7-7-7-7-4-4-5-5-7-7-7-7-4-4-5-5-7-7-7-7-4-4-5-7--7-7-4-4|
A|-2-2-5-5-5-5-7-7-2-2-5-5-5-5-7-7-2-2-5-5-5-5-7-7-2-2-5-7--5-5-2-2|
E|-----3-3-----5-5-----3-3-----5-5-----3-3-----5-5-----3-5---------|
Open my eyes...

Then:
E|-------------------------------------------------------------------------|
B|-------------------------------------------------------------------------|
G|-------------------------------------------------------------------------|
D|-------------------------------------------------------------------------|
A|--7-9-7-9-x-x-5-5-7-5-7-5-7-x-x-5-5-7^-7-9-7-9-x-x-5-5-7-5-7-5-7-x-x-5-5-|
E|--5-7-5-7-x-x-3-3-5-3-5-3-5-x-x-3-3-5--5-7-5-7-x-x-3-3-5-3-5-3-5-x-x-3-3-|


Verse :

This is all the verse (electric)
----------------------------------P.M.--------------------------------------
E|-------------------------------------------------------------------------|
B|-------------------------------------------------------------------------|
G|-------------------------------------------------------------------------|
D|-------------------------------------------------------------------------|
A|-------------------------------------------------------------------------|
E|--5-7-5-7-x-x-3-3-5-3-5-3-5-x-x-3-3-5--5-7-5-7-x-x-3-3-5-3-5-3-5-x-x-3-3-|


Acoustic:
Bm              A
Hate is like a ghost That lives inside of me, I plead
            Bm             A
That lives inside of me, I plead
     Bm              A
For you to be my guide
          Bm           A
To be the beater of my need

             Bm             
I've lost a war
             A
I've lost a fight
              Bm
I've killed a man
          A
Wasted a life


Prechorus:
E|-----|
B|-----|
G|-----|
D|-5-5-|
A|-5-5-|
E|-3-3-|

Chorus:
E|-----------------------------------------------------------------|
B|-----------------------------------------------------------------|
G|-4-4-----7-7-----4-4-----7-7-----4-4-----7-7-----4-4------7-7-4-4|x2
D|-4-4-5-5-7-7-7-7-4-4-5-5-7-7-7-7-4-4-5-5-7-7-7-7-4-4-5-7--7-7-4-4|
A|-2-2-5-5-5-5-7-7-2-2-5-5-5-5-7-7-2-2-5-5-5-5-7-7-2-2-5-7--5-5-2-2|
E|-----3-3-----5-5-----3-3-----5-5-----3-3-----5-5-----3-5---------|
Open my eyes..

Bridge:
E|---------------------------|
B|---------------------------|
G|---------------------------|x4
D|-7-9-9-9-7-7-7-5-5-5-4-4-4-|
A|-7-9-9-9-7-7-7-5-5-5-4-4-4-|
E|-5-7-7-7-5-5-5-3-3-3-2-2-2-|

Chorus:
E|------------------------------------------------------|
B|------------------------------------------------------|
G|-----4-4-----7-7-----4-4-----7-7-----4-4-----7-7------|x2
D|-9-7-4-4-5-5-7-7-7-7-4-4-5-5-7-7-7-7-4-4-5-5-7-7-7-7--|
A|-9-7-2-2-5-5-5-5-7-7-2-2-5-5-5-5-7-7-2-2-5-5-5-5-7-7--|
E|-7-5-----3-3-----5-5-----3-3-----5-5-----3-3-----5-5--|
Open my eyes..

E|----------------------------------------------------------|
B|----------------------------------------------------------|
G|-4-4-----7-7-----4-4-----7-7-----4-4-----7-7-----4-4------|x2
D|-4-4-5-5-7-7-7-7-4-4-5-5-7-7-7-7-4-4-5-5-7-7-7-7-4-4-5-7--|
A|-2-2-5-5-5-5-7-7-2-2-5-5-5-5-7-7-2-2-5-5-5-5-7-7-2-2-5-7--|
E|-----3-3-----5-5-----3-3-----5-5-----3-3-----5-5-----3-5--|
Open my eyes..

End (acoustic):
Bm-A-D-A x2

Easy! Please reate!
PEACE!
            
Submit corrections

comments powered by Disqus
↑ Back to top | Rasmus Tabs for Open My Eyes. Lyrics for acoustic guitar and electric guitar. 1 Tablatures and chords are parodies/interpretations of the original songs. You may use it for private study, scholarship, research or language learning purposes only