» » »

No Fear Bass tabs (ver.2)

Artists:  A B C D E F G H I J K L M N O P Q R S T U V W X Y Z # 

No Fear Bass tabs (ver.2)

Rasmus
Rating:
0/5 (0 votes)

Tabs too difficult? Try these video lessons and learn fast.
                Band: The Rasmus

Hello everybody, this is my second tab and I hope it’s ok
It’s very easy just read it and enjoy it! _____tabbed by “ZerO”

Tunning: Standard

Riff/Chorus                                          End with
--------------------------------------------------|     ---|
--------------------------------------------------| x2  ---|
--------------77--77--7---------------------------|     ---|
4--44--44--4-------------77--77--7----22--22------|     -0-| 

Pre-verse 
----------------------------------------------------|
----------------------------------------------------|
----------------------------------------------------|
7-4-7-7---------------------------------------------|

Verse
--------------------------------------------------------------------------|
--------------------------------------------------------------------------| x2
------------6666666----7777777----2222222----4444444----6666666-----------|
4--4444444-------------------------------------------------------4444444--|

Pre-Chorus
----------------------------------------------------|
----------------------------------------------------|
----------------------------------------------------|
7-4-7-----------------------------------------------|

Bridge
--------------------------------------------------|
--------------------------------------------------|
----77------------------77------------------------|
44------77----22----44------77---7-4-7--7-4-------|      

Last Chorus                                         End with 
-------------------------------------------------|     ---|
-------------------------------------------------| x6  ---|
--------------99--99--9----44--44-4--------------|     ---|
6--66--66--6-------------------------44--44--4---|     -2-|
            
Tabs too difficult? Try these video lessons and learn fast.


comments powered by Disqus
↑ Back to top | Tablatures and chords are parodies/interpretations of the original songs. You may use it for private study, scholarship, research or language learning purposes only