>
 >
Lucifers Angel

Lucifers Angel Guitar Tabs

Rasmus - Lucifers Angel chords, tabs, tablatures, lyrics

Guitar lessons | Add/correct | Request | Top 50 tabs Artists:  A B C D E F G H I J K L M N O P Q R S T U V W X Y Z 0-9

Lucifers Angel Guitar Tabs – Rasmus

CD, Sheet music, Poster

Do you like Lucifers Angel? Share with your friends now
ChordsTabsUkulele
Artiste: The Rasmus 

Tuning Standard

Intro 1 (0:00)

|-------------------------------------------------------------------|
|-------------------------------------------------------------------|
|-11-----12-11-----12-14-----16-11----------------------------------|
|-------------------------------------------------------------------|
|-------------------------------------------------------------------|
|-------------------------------------------------------------------|

Intro 2 (0:12)

|-------------------------------------------------------------------|
|-------------------------------------------------------------------|
|-------------------------------------------------------------------|
|-------------------------------------------------------------------|
|-2-2--2-454-2-2-454--0-0--0-454-0-0-454/-7-7--7-10910-7-7-10910/---|
|-------------------------------------------------------------------|

|-------------------------------------------------------------------|
|-------------------------------------------------------------------|
|-------------------------------------------------------------------|
|-------------------------------------------------------------------|
|-2-2--2-454-2-2-454------------------------------------------------|
|-------------------------------------------------------------------|

Verse (0:24)

|-------------------------------------------------------------------|
|-------------------------------------------------------------------|
|-------------------------------------------------------------------|
|-------------------------------------------------------------------|
|-9-9--9-9-9-9--12-12--12-12-12-12--7-7--7-7-7-7-7--9-9--9-9-9-9----|
|-7-7--7-7-7-7--10-10--10-10-10-10--5-5--5-5-5-5-5--7-7--7-7-7-7----|
PM.
|-------------------------------------------------------------------|
|-------------------------------------------------------------------|
|-------------------------------------------------------------------|
|-------------------------------------------------------------------|
|-9-9--9-9-9-9--12-12--12-12-12-12--1111-11111111-9-9--9-9-9-9------|
|-7-7--7-7-7-7--10-10--10-10-10-10--9-9--9-9-9-9--7-7--7-7-7-7------|
PM.
|-------------------------------------------------------------------|
|-------------------------------------------------------------------|
|-------------------------------------------------------------------|
|-------------------------------------------------------------------|
|-9-9--9-9-9-9--12-12--12-12-12-12--7-7--7-7-7-7-7--9-9--9-9-9-9----|
|-7-7--7-7-7-7--10-10--10-10-10-10--5-5--5-5-5-5-5--7-7--7-7-7-7----|

|-------------------------------------------------------------------|
|-------------------------------------------------------------------|
|-------------------------------------------------------------------|
|-------------------------------------------------------------------|
|-9-9--9-9-9-9--12-12--12-12-12-12--1111-11111111-1111-11111111-----|
|-7-7--7-7-7-7--10-10--10-10-10-10--9-9--9-9-9-9--9-9--9-9-9-9------|
Prechorus (0:49)

|-------------------------------------------------------------------|
|-------------------------------------------------------------------|
|-------------------------------------------------------------------|
|-4---12------------------------------------------------------------|
|-4---12------------------------------------------------------------|
|-2---10------------------------------------------------------------|

Chorus (0:52)

|-------------------------------------------------------------------|
|-------------------------------------------------------------------|
|-------------------------------------------------------------------|
|-9---4-2-5-7-------------------------------------------------------|
|-9---4-2-5-7-------------------------------------------------------|
|-7---2-0-3-5-------------------------------------------------------|

Intro 2(1:10) 2x

Verse (1:35)

Prechorus (1:59)

Chorus (2:02)

Intro (2:20)

Bridge (2:32)

|------------------------------------------------------------------|
|-------------------------------12--12-----------------------------|
|------------------------------9-----------------------------------|
|-4--4-4--4-4-2--------------9-------------------------------------|
|-4--4-4--4-4-2---4-times----9-------------------------------------|
|-2--2-2--2-2-0--------------7-------------------------------------|

Chorus (2:59)

End (3:18)

|------------------------------------------------------------------|
|------------------------------------------------------------------|
|------------------------------------------------------------------|
|------------------------------------------------------------------|
|-2-2--2-454-2-2-454--0-0--0-454-0-0-454/-7-7--7-10910-7-7-10910/--|
|------------------------------------------------------------------|

1)
|------------------------------------------------------------------|
|------------------------------------------------------------------|
|------------------------------------------------------------------|
|------------------------------------------------------------------|
|-22-44-55-7h9p7-5--5----------------------------------------------|
|------------------7-----------------------------------------------|

2)
|------------------------------------------------------------------|
|------------------------------------------------------------------|
|------------------------------------------------------------------|
|-9--9--9--9-9-7/5-------------------------------------------------|
|------------------------------------------------------------------|
|------------------------------------------------------------------|

3)
|------------------------------------------------------------------|
|-88-77-55-33-23---------------------------------------------------|
|------------------------------------------------------------------|
|-----------------9/-----------------------------------------------|
|-----------------9/-----------------------------------------------|
|-----------------7/-----------------------------------------------|





Comments


Popular Rasmus tabs & chords
Live Forever Bass Tabs
Peep Bass Tabs
Liquid Chords
Somewhere Chords
Chill Tabs
In My Life Tabs
Jailer Tabs
The Fight 1 Tabs
Dont Let Go Ukulele
Open My Eyes Ukulele


Song lyrics



↑ Back to top | Tablatures and chords are parodies/interpretations of the original songs. You may use it for private study, scholarship, research or language learning purposes only
© 2014 AZChords.com Contact us | Privacy policy | DMCA | Add/correct tabs | Request tabs | Top 50 tabs