>
 >
Lost And Lonely

Lost And Lonely Guitar Tabs

Rasmus - Lost And Lonely chords, tabs, tablatures, lyrics

Guitar lessons | Add/correct | Request | Top 50 tabs Artists:  A B C D E F G H I J K L M N O P Q R S T U V W X Y Z 0-9

Lost And Lonely Guitar Tabs – Rasmus

CD, Sheet music, Poster

Do you like Lost And Lonely? Share with your friends now
ChordsTabsUkulele
 -------------------------------------------------------------------------------
                             LOST AND LONELY - The Rasmus
-------------------------------------------------------------------------------

Tuning: Standard (EADGBe)

Intro:
   .  . .      .  . .      .  . .      .  . .
e|-------------------------------------------------|
B|-------------------------------------------------|
G|-------------------------------------------------|
D|--------7~----------7~----------3~----------5~---| x2
A|--------7~----------7~----------3~----------5~---|
E|-10-8-7-5~---10-8-7-5~---10-8-7-1~---10-8-7-3~---|

Main Riff (Listen to CD for rhythm):
   .  .  .
e|----------|---------------------------------------------------------|
B|----------|---------------------------------------------------------|
G|----------|---------------------------------------------------------|
D|----------|-1010-1010-1010-1010-1010-1010-10-66-66-66-6-88-88-88-8--| x2
A|----------|-1010-1010-1010-1010-1010-1010-10-66-66-66-6-88-88-88-8--|
E|-13-11-10-|-8-8--8-8--8-8--8-8--8-8--8-8--8--44-44-44-4-66-66-77-7--|

Verse (Guitar 1)(Listen to song for rhythm, all PM):
e|--------------------------------------------|---------------------|
B|--------------------------------------------|---------------------|
G|-------------------------77777777-----------|---------------------|
D|-77777777777777777777777-77777777-55555555--| x2 -33333333-66666--|
A|-77777777777777777777777-55555555-55555555--|-----33333333-66666--|
E|-55555555555555555555555----------33333333--|-----11111111-44444--|

Verse (Guitar 2, comes in half way through verse):
e|----------------------------------------------------|
B|-12--10----12--13----12--10----12--13----15--13-12--|
G|----------------------------------------------------|
D|----------------------------------------------------|
A|----------------------------------------------------|
E|----------------------------------------------------|

Chorus:
e|-------------------------------------------------|
B|-------------------------------------------------|
G|-------------------------------------------------|
D|-1010101010101010101010101010106666666688889999--| x2
A|-1010101010101010101010101010106666666688889999--|
E|-8-8-8-8-8-8-8-8-8-8-8-8-8-8-8-4444444466667777--|

Main Riff x1

Verse (Same, except Guitar 2 comes in immediately and there is only one repeat)

Chorus

Main Riff x1

Bridge (Guitar 1):
e|-----------------------------|
B|-----------------------------|
G|-8888888888888888444444446\--|
D|-8888888888888888444444446\--|
A|-6666666666666666222222224\--|
E|-----------------------------|
There's definitely some sort of lead part under that, but it's so quiet I can't tab it :(

Chorus

Strings Solo (Guitar plays Chorus underneath, finish on E|-8-|)

Outro (Guitar 1, acoustic):
e|-------------------------------------------|
B|---------------------------------------5---|
G|-9-9-77~-9-9-77~-7755~-7-4h5p4-7-4h5p4--5~-|
D|-101099~-101099~-9977~--------5-------5----| x a hell of a lot
A|-------------------------------------------|
E|-------------------------------------------|

Outro (Guitar 2, electric):
                                                   .  .  .  .
e|--------------------------------------------------------------|
B|--------------------------------------------------------------|
G|--------------------------------------------------------------|
D|-------10-9-10-14-14-19-19~-19/21-17~-17h19p17---12-14-12-10--|
A|-12~------------------------------------------19--------------|
E|--------------------------------------------------------------|

   .  .  . .  . .  .  . .    
e|----------------------------------------------|
B|----------------------------------------------|
G|-------------------------------17-16h17p16----|
D|-12-10-9-10-9----10-9---------------------14~-|
A|--------------12------12-10~------------------|
E|----------------------------------------------|


e|------------------------------------|
B|------------17----------------------|
G|-17-16h17p16---17-16h17p16---17-14~-|
D|--------------------------17--------| x a lot
A|------------------------------------|
E|------------------------------------|

The End.

| .  palm mute
| /  slide up
| \  slide down
| h  hammer-on
| p  pull-off
| ~  vibrato
| +  harmonic
| x  Mute note
===============================================================================





Comments


Popular Rasmus tabs & chords
Heartbreaker Bass Tabs
Shot Bass Tabs
Tonight Tonight Bass Tabs
Last Waltz Chords
Chill 1 Tabs
In The Shadows 4 Tabs
Myself 1 Tabs
Rakkauslaulu 1 Tabs
Shame Tabs
Stranger Ukulele


Song lyrics



↑ Back to top | Tablatures and chords are parodies/interpretations of the original songs. You may use it for private study, scholarship, research or language learning purposes only
© 2014 AZChords.com Contact us | Privacy policy | DMCA | Add/correct tabs | Request tabs | Top 50 tabs