» » »

Rasmus, In The Shadows Tabs (ver.5)

Artists:  A B C D E F G H I J K L M N O P Q R S T U V W X Y Z # 

In The Shadows Tabs (ver.5)

Rasmus Tabs
 Rating:
4/5 (4 votes)
In The Shadows lessons Tabs too difficult? Try these video lessons and learn fast
                (Intro)
-----------------------------------------------------------
The Rasmus - In The Shadows (Intro)
-----------------------------------------------------------
Standart Tuning

----------
Intro
----------

[Alarm sound arranged for guitar]
e|-0--0--0--0--0--0--0--0----
B|-7--7--7--7--7--7--7--7----
G|---------------------------
D|---------------------------
A|---------------------------
E|---------------------------

[Intro Riff]
e|-----------------------------------------------------------------
B|-----------------------------------------------------------------
G|-----------------------------------------------------------------
D|-----------------------------------------------------------------
A|-5-5--5-7-5-4-0----------------2-4---5-5-5-4-0-------------4-0---
E|----------------2-2--2-0-0-2-5-----------------2-2-4-4-5-5-------


[Main Riff]
e|--------------------------------------------
B|--------------------------------------------
G|--------------------------------------------
D|-7-7--7-7-7-6----------------2----4---6-----
A|-5-5--5-5-5-4-0-4-4--4-2-2-4-0----2---4-----
E|----------------2-2--2-0-0-2----------------

e|---------------------------------
B|---------------------------------
G|---------------------------------
D|-7-7-7-6------------------6------
A|-5-5-5-4-0-4---6---7-7-7--4-0----
E|-----------2---4---5-5-5---------

e|--------------------------------------------
B|--------------------------------------------
G|--------------------------------------------
D|-7-7--7-7-7-6----------------2----4---6-----
A|-5-5--5-5-5-4-0-4-4--4-2-2-4-0----2---4-----
E|----------------2-2--2-0-0-2----------------

e|-------------------------------
B|-------------------------------
G|-------------------------------
D|-7-7-7-6-----------------------
A|-5-5-5-4-0-4---4---4-4-4-4-----
E|-----------2---2---2-2-2-2-----
            
Submit corrections

comments powered by Disqus
↑ Back to top | Rasmus Tabs for In The Shadows. Lyrics for acoustic guitar and electric guitar. Tablatures and chords are parodies/interpretations of the original songs. You may use it for private study, scholarship, research or language learning purposes only