>
 >
Immortal

Immortal Guitar Tabs

Rasmus - Immortal chords, tabs, tablatures, lyrics

Guitar lessons | Add/correct | Request | Top 50 tabs Artists:  A B C D E F G H I J K L M N O P Q R S T U V W X Y Z 0-9

Immortal Guitar Tabs – Rasmus

CD, Sheet music, Poster

Do you like Immortal? Share with your friends now
Tabs
Artiste: The Rasmus
(This is my first tab!)

Tuning Standard

Intro 1 (0:00)
|---------------------------------------------|
|---------------------------------------------|
|---------------------------------------------|
|------------------------0000---------0-------|
|-------1-1-xx4444-3-1--------333-1-3---3-1---|
|-3-3-0----------------3----------------------|

|---------------------------------------------|
|---------------------------------------------|
|---------------------------------------------|
|-----------7-5-3-----------------------------|
|-------1-1-5-3-1-----------------------------|
|-3-3-0---------------------------------------|
 
Intro 2 (0:08)
|---------------------------------------------|
|---------------------------------------------|
|---------------------------------------------|
|------------------------0000---------0-------|
|-------1-1-xx4444-3-1--------333-1-3---3-1---|
|-3-3-0----------------3----------------------|

Verse 1 (0:19)
|---------------------------------------------|
|-8---11-10-----------------8---11-10---------|
|---7-------------------------7---------------|
|---------------------------------------------|
|---------------------------------------------|
|---------------------------------------------|

Verse 2 (0:30)
|---------------------------------------------|
|-----10-----10----11----10-----10------------|
|-7-7----7-7----77----77----7-7----7----------|
|---------------------------------------------|
|---------------------------------------------|
|---------------------------------------------|
PM.
|---------------------------------------------|
|---------------------------------------------|
|-----10-----10---------12-----12-------------|
|-8-8----8-8----8-8-8-8----8-8----8-8---------|
|---------------------------------------------|
|---------------------------------------------|
PM.

Prechorus (0:43)
|---------------------------------------------|
|---------------------------------------------|
|---------------------------------------------|
|-5-5-7b-5-5-7b-7-7-7b-7-7-7b-----------------|
|-5-5----5-5----7-7----7-7--------------------|
|-3-3----3-3----5-5----5-5--------------------|

Chorus 1 (0:49)
|--------------------------------------------------------|
|--------------------------------------------------------|
|--------------------------------7x7x7/9xx9xx9/10x10x10--|
|-5x5x5/7x7x7/8x8x8-8x8x8/101010-7x7x7/9xx9xx9/10x10x10--|
|-5x5x5/7x7x7/8x8x8-8x8x8/101010-5x5x5/7xx7xx7/8xx8xx8---|
|-3x3x3/5x5x5/6x6x6-6x6x6/8x8x8---0-0-0-00-00-0-00-00--0-|
PM.

Chorus 2 (1:01)
|-----------------------------------------------------------------|
|-----------------------------------------------------------------|
|-----------------------------------------------------------------|
|-5-5-5--5-5-5--2-2-2--2-2-2--3-3-3--3-3-3--3-3-3--2-2-2--3-3-3---|
|-5-5-5--5-5-5--2-2-2--2-2-2--3-3-3--3-3-3--3-3-3--2-2-2--3-3-3---|
|-3-3-3--3-3-3--0-0-0--0-0-0--1-1-1--1-1-1--1-1-1--0-0-0--1-1-1---|

Intro 2 (1:13) 2x

Verse 1 (1:24)

Verse 2 (1:36) 2x

Prechorus (1:48)

Chorus 1 (1:54)

Chorus 2 (2:06)

Bridge (2:19)
|---------------------------------------------------------------|
|---------------------------------------------------------------|
|---------------------------------------------------------------|
|---------------------------------------------------------------|
|-5-5-5-5/7-7-7-7/8-8-8-8/10101010------------------------------|
|-3-3-3-3/5-5-5-5/6-6-6-6/8-8-8-8-------------------------------|

|---------------------------------------------------------------|
|---------------------------------------------------------------|
|---------------------------------------------------------------|
|---------------------------------------------------------------|
|-3---3---3---3---3---3---3---3---5---5---5---5---8--10-12--13--|
|---3---3---3---3---2---2---2---2---5---5---5---5-6--8--10--11--|


|---------------------------------------------------------------|
|---------------------------------------------------------------|
|---------------------------------------------------------------|
|----------------------------------------------------xxxx-------|
|-3---3---3---3---4---4---4---4---5---5---5---5---5~-xxxx-------|
|---3---3---3---3---3---3---3---3---5---5---5---5----xxxx-------|
                                            
Solo 1 (2:44)
|---------------------9-----------------------------------------|
|-6/11-11-11-11-11-11---11-11-11-11-11--11-11\10-11\8-11\10\8b--|
|---------------------------------------------------------------|
|---------------------------------------------------------------|
|---------------------------------------------------------------|
|---------------------------------------------------------------|
harmonics             x

|--------5-3-3-3-3-5-xx-----------------------------------------|
|--------------------xx-----------------------------------------|
|-3/5-6b-------------xx-8\6\5-x-x-x-8\6\5\3---------------------|
|---------------------------------------------------------------|
|---------------------------------------------------------------|
|---------------------------------------------------------------|
harmonics xx x x x x   

Solo 2 (2:56) 2x
|---------------------------------------------------------------|
|--------------------------------------4------------------------|
|-3-666-5p3-5-3-5555-6/8-6h8p6-5-3-5-6---66-5-3-5h6p5-3\1-3-----|
|---------------------------------------------------------------|
|---------------------------------------------------------------|
|---------------------------------------------------------------|


During the solo 1 (2:44) 2x
|---------------------------------------------|
|---------------------------------------------|
|---------------------------------------------|
|------------------------0000---------0-------|
|-------1-1-xx4444-3-1--------333-1-3---3-1---|
|-3-3-0----------------3----------------------|

During the solo 2 (2:56) 2x
|---------------------------------------------|
|---------------------------------------------|
|---------------------------------------------|
|------------------------3333---------3-------|
|-------4-4-xx7777-6-4--------666-4-7---6-4\--|
|-6-6-3----------------6----------------------|

Chorus 3 (3:07)
|------------------------------------------------------------------|
|-----3-----3---------4-----4--------------------------------------|
|---3---3-----3-----5---5-----5----2times--------------------------| 
|-5-------5-----5-5-------5-----5----------------------------------|
|------------------------------------------------------------------|
|------------------------------------------------------------------|

|------------------------------------------------------------------|
|-----3-----3---------3-----3---------4-----4---------3-----3------|
|---3---3-----3-----3---3-----3-----5---5-----5-----3---3-----3----|
|-5-------5-----5-5-------5-----5-5-------5-----5-5-------3-----5--|
|------------------------------------------------------------------|
|------------------------------------------------------------------|

Chorus 2 (3:19)

Chorus 1 (3:31)

Chorus 2 (3:44)

Interlude (3:56) 
|-------------------------------------------------------------------------|
|-------------------------------------------------------------------------|
|-------------------------------------------------------------------------|
|-7-7-7-7-7-7-7-7--3-3-3-3-3-3-3-3--5-5-5-5-5-5-5-5--8-8-8-8-8-8-8-8-xxxx-|
|-7-7-7-7-7-7-7-7--3-3-3-3-3-3-3-3--5-5-5-5-5-5-5-5--8-8-8-8-8-8-8-8-xxxx-|
|-5-5-5-5-5-5-5-5--1-1-1-1-1-1-1-1--3-3-3-3-3-3-3-3--6-6-6-6-6-6-6-6-xxxx-|

End (4:19)
|-------15-------15-------------13------13----------|
|----11----11-------11-------11----11------11-------|
|-12----------12-------12-12---------12-------12----|
|---------------------------------------------------|
|---------------------------------------------------|
|---------------------------------------------------|

|-------13-------13-------------11------11----------|
|----11----11-------11-------11----11------11-------|
|-10----------10-------10-10----------10------10----|
|---------------------------------------------------|
|---------------------------------------------------|
|---------------------------------------------------|

|-------10-------10-------------10-------11---------|
|----11----11-------11-------11----11-------11------|
|-10----------10-------10-10----------10-------10---|
|---------------------------------------------------|
|---------------------------------------------------|
|---------------------------------------------------|

|-------8-------8------------8------8---------------|
|----11---11------11------10---10-----10------------|
|-10---------10------10-7---------7------7----------|
|---------------------------------------------------|
|---------------------------------------------------|
|---------------------------------------------------|





Comments


Popular Rasmus tabs & chords
Sail Away Chords
Save Me Once Again Chords
Ten Black Roses Chords
Time To Burn Chords
Chill 1 Tabs
Everyday Tabs
Sos Tabs
F-f-f-falling Ukulele
In The Shadows Ukulele
Sos Ukulele


Song lyrics



↑ Back to top | Tablatures and chords are parodies/interpretations of the original songs. You may use it for private study, scholarship, research or language learning purposes only
© 2014 AZChords.com Contact us | Privacy policy | DMCA | Add/correct tabs | Request tabs | Top 50 tabs