» » »

If You Ever Tabs (ver.1)

Artists:  A B C D E F G H I J K L M N O P Q R S T U V W X Y Z # 

If You Ever Tabs (ver.1)

Rasmus
Rating:
0/5 (0 votes)

Tabs too difficult? Try these video lessons and learn fast.
                Artist : The Rasmus
Song : If You Ever
Album : Funeral song Single

BEAUTIFUL SONG
PLEASE REATE

Intro: Piano

Verse: Piano
Close my eyes 
Lay down to sleep away
There's no return
It's my mistake 
There's no use in crying

Prechorus:
-------P.M.-------
E|----------------|
B|----------------|
G|----------------|x14
D|---4-4-4-4------|
A|---4-4-4-4------|
E|---2-2-2-2------|
It's time to learn...

Chorus
E|-------------------------------------|
B|-------------------------------------|
G|-------------------------------------|x1
D|---5-5-5-x-2-2-4-4-4-x-2-2-5-5-x-2---|
A|---5-5-5-x-2-2-4-4-4-x-2-2-5-5-x-2---|
E|---3-3-3-x-0-0-2-2-2-x-0-0-3-3-x-0---|
If you ever need someone.......

E|----------------------------|
B|---7h8p7--5--3--------------|
G|----------------------------|
D|----------------------------|
A|----------------------------|
E|----------------------------|

E|-------------------------------------|
B|-------------------------------------|
G|-------------------------------------|x1
D|---5-5-5-x-2-2-4-4-4-x-2-2-5-5-x-2---|
A|---5-5-5-x-2-2-4-4-4-x-2-2-5-5-x-2---|
E|---3-3-3-x-0-0-2-2-2-x-0-0-3-3-x-0---|
If you ever change your mind...


Verse 2: Piano
All alone
This time I walk away
It feels so cold
But I know it's something I deserve
I deserve to be misled
Breaking up the family
I know it's my fault
It feels so cold
But I know it's something I deserve

Prechorus:
-------P.M.-------
E|----------------|
B|----------------|
G|----------------|x14
D|---4-4-4-4------|
A|---4-4-4-4------|
E|---2-2-2-2------|
I deserve to be dead..

Chorus
E|-------------------------------------|
B|-------------------------------------|
G|-------------------------------------|x1
D|---5-5-5-x-2-2-4-4-4-x-2-2-5-5-x-2---|
A|---5-5-5-x-2-2-4-4-4-x-2-2-5-5-x-2---|
E|---3-3-3-x-0-0-2-2-2-x-0-0-3-3-x-0---|
If you ever need someone.......

E|----------------------------|
B|---7h8p7--5--3--------------|
G|----------------------------|
D|----------------------------|
A|----------------------------|
E|----------------------------|

E|-------------------------------------|
B|-------------------------------------|
G|-------------------------------------|x1
D|---5-5-5-x-2-2-4-4-4-x-2-2-5-5-x-2-4-|
A|---5-5-5-x-2-2-4-4-4-x-2-2-5-5-x-2-4-|
E|---3-3-3-x-0-0-2-2-2-x-0-0-3-3-x-0-2-|
If you ever change your mind...

Bridge:
E|-------------------------------------------------------|
B|-------------------------------------------------------|
G|-------------------------------------------------------|x1
D|---9-9-9-9-7-7-7-7-4-5-5-5-4-4-4-4-2-2-2-2-4-4-4-4-4-4-|
A|---9-9-9-9-7-7-7-7-4-5-5-5-4-4-4-4-2-2-2-2-4-4-4-4-4-4-|
E|---7-7-7-7-5-5-5-5-3-3-3-3-2-2-2-2-0-0-0-0-2-2-2-2-2-2-|
Sorry about the things I've done (sorry about the things I've done)...

E|-------------------------------------------------------|
B|-------------------------------------------------------|
G|-------------------------------------------------------|x2
D|---9-9-9-9-7-7-7-7-4-5-5-5-4-4-4-4-2-2-2-2-4-4-4-4-4-4-|
A|---9-9-9-9-7-7-7-7-4-5-5-5-4-4-4-4-2-2-2-2-4-4-4-4-4-4-|
E|---7-7-7-7-5-5-5-5-3-3-3-3-2-2-2-2-0-0-0-0-2-2-2-2-2-2-|
---------------------------P.M.--------------------------
Waiting for the storm, my face against the wall.....

Chorus
E|-------------------------------------|
B|-------------------------------------|
G|-------------------------------------|x1
D|---5-5-5-x-2-2-4-4-4-x-2-2-5-5-x-2---|
A|---5-5-5-x-2-2-4-4-4-x-2-2-5-5-x-2---|
E|---3-3-3-x-0-0-2-2-2-x-0-0-3-3-x-0---|
If you ever need someone.......

E|----------------------------|
B|---7h8p7--5--3--------------|
G|----------------------------|
D|----------------------------|
A|----------------------------|
E|----------------------------|

E|-------------------------------------|
B|-------------------------------------|
G|-------------------------------------|x1
D|---5-5-5-x-2-2-4-4-4-x-2-2-5-5-x-2-4-|
A|---5-5-5-x-2-2-4-4-4-x-2-2-5-5-x-2-4-|
E|---3-3-3-x-0-0-2-2-2-x-0-0-3-3-x-0-2-|
If you ever change your mind...

End: Piano

Easy! Please reate!
            
Tabs too difficult? Try these video lessons and learn fast.


comments powered by Disqus
↑ Back to top | Tablatures and chords are parodies/interpretations of the original songs. You may use it for private study, scholarship, research or language learning purposes only