>
 >
Heart Of Misery

Heart Of Misery Guitar Tabs

Rasmus - Heart Of Misery chords, tabs, tablatures, lyrics

Guitar lessons | Add/correct | Request | Top 50 tabs Artists:  A B C D E F G H I J K L M N O P Q R S T U V W X Y Z 0-9

Heart Of Misery Guitar Tabs – Rasmus

CD, Sheet music, Poster

Do you like Heart Of Misery? Share with your friends now
TabsTabs v2Tabs v3
-------------------------------------------------------------------------------
                             Heart Of Misery - The Rasmus 
-------------------------------------------------------------------------------


Tuning: Standard

Intro:
e|---------------------------------------------------------------------------|
B|---------------------------------------------------------------------------|
G|-7-7-7-6-6--6-9-9-7---7-7-7-6-6--6-9-9-7-7---------------------------------|
D|---------------------------------------------------------------------------|
A|---------------------------------------------------------------------------|
E|---------------------------------------------------------------------------|

e|-------------------------------------------------------------------------------------------|
B|-------------------------------------------------------------------------------------------|
G|-------------------------------------------------------------------------------------------|
D|-------------------------------------------------------------------------------------------|
A|-10-10-10--9-9--9-12-12-10-10--10-9----10-10-10-9-9--9-12-12-10-10--10-9-------------------|
E|--7--7--7--7-7--7--7--7--7--7---7-7-----7--7--7-7-7--7--7--7--7--7---7-7-------------------|

e|-------------------------------------------------------------------------------------------|
B|-------------------------------------------------------------------------------------------|
G|-------------------------------------------------------------------------------------------|
D|-------------------------------------------------------------------------------------------|
A|-5-5-5-4-4--4-7-7-5-5--5-4--5-5-5-4-4--4-7-7-7-7--7-7--------------------------------------|
E|-3-3-3-3-3--3-3-3-3-3--3-3--3-3-3-3-3--3-5-5-5-5--5-5--------------------------------------|

Verse
e|------------------------------------------------------------------------------------------|
B|------------------------------------------------------------------------------------------|
G|------------------------------------------------------------------------------------------|
D|------------------------------------------------------------------------------------------| 2x
A|-9-9-9-9-9--9-9-9-9-9--9-9-9-9-9--9-9-9-9-9--5-5-5-5-5--5-5-5-5-5--5-5-5-5-5--5-5-7-7-7---|
E|-7-7-7-7-7--7-7-7-7-7--7-7-7-7-7--7-7-7-7-7--3-3-3-3-3--3-3-3-3-3--3-3-3-3-3--3-3-5-5-5---|

e|------------------------------------------------------------------------------------------|
B|------------------------------------------------------------------------------------------|
G|------------------------------------------------------------------------------------------|
D|------------------------5-5-5-5-5-5-5-5---------------------------------------------------|
A|-7-7-7--5-5-5-5-5-5-5-5-5-5-5-5-5-5-5-5---------------------------------------------------|
E|-5-5-5--3-3-3-3-3-3-3-3-3-3-3-3-3-3-3-3---------------------------------------------------|
          x x x x x x x x

Chorus:
e|---------------------------------------------------------------------------------------|
B|---------------------------------------------------------------------------------------|
G|---------------------------------------------------------------------------------------|
D|-9-9-------9-9-------9-9-------2--4----------------------------------------------------| 2x
A|-9-9-------9-9-------9-9-------2--4----------------------------------------------------|
E|-7-7--10-9-7-7--10-9-7-7--10-9-0--2----------------------------------------------------|

Intro:
e|-------------------------------------------------------------------------------------------|
B|-------------------------------------------------------------------------------------------|
G|-------------------------------------------------------------------------------------------|
D|-------------------------------------------------------------------------------------------|
A|-10-10-10--9-9--9-12-12-10-10--10-9----10-10-10-9-9--9-12-12-10-10--10-9-------------------|
E|--7--7--7--7-7--7--7--7--7--7---7-7-----7--7--7-7-7--7--7--7--7--7---7-7-------------------|

e|-------------------------------------------------------------------------------------------|
B|-------------------------------------------------------------------------------------------|
G|-------------------------------------------------------------------------------------------|
D|-------------------------------------------------------------------------------------------|
A|-5-5-5-4-4--4-7-7-5-5--5-4--5-5-5-4-4--4-7-7-7-7--7-7--------------------------------------|
E|-3-3-3-3-3--3-3-3-3-3--3-3--3-3-3-3-3--3-5-5-5-5--5-5--------------------------------------|

Verse
e|------------------------------------------------------------------------------------------|
B|------------------------------------------------------------------------------------------|
G|------------------------------------------------------------------------------------------|
D|------------------------------------------------------------------------------------------| 2x
A|-9-9-9-9-9--9-9-9-9-9--9-9-9-9-9--9-9-9-9-9--5-5-5-5-5--5-5-5-5-5--5-5-5-5-5--5-5-7-7-7---|
E|-7-7-7-7-7--7-7-7-7-7--7-7-7-7-7--7-7-7-7-7--3-3-3-3-3--3-3-3-3-3--3-3-3-3-3--3-3-5-5-5---|

e|------------------------------------------------------------------------------------------|
B|------------------------------------------------------------------------------------------|
G|------------------------------------------------------------------------------------------|
D|------------------------5-5-5-5-5-5-5-5---------------------------------------------------|
A|-7-7-7--5-5-5-5-5-5-5-5-5-5-5-5-5-5-5-5---------------------------------------------------|
E|-5-5-5--3-3-3-3-3-3-3-3-3-3-3-3-3-3-3-3---------------------------------------------------|
          x x x x x x x x

Chorus:
e|---------------------------------------------------------------------------------------|
B|---------------------------------------------------------------------------------------|
G|---------------------------------------------------------------------------------------|
D|-9-9-------9-9-------9-9-------2--4----------------------------------------------------| 2x
A|-9-9-------9-9-------9-9-------2--4----------------------------------------------------|
E|-7-7--10-9-7-7--10-9-7-7--10-9-0--2----------------------------------------------------|

Bridge:
e|------------------------------------------------------------------------------------------------|
B|------------------------------------------------------------------------------------------------|
G-4-4-4-4-4-4-4-4-4-4-4-4-4-4-4-4-6-6-6-6-6-6-6-6-6-6-6-6-6-6-6-6--7-7-7-7-7-7-7-7-7-7-7-7-7-7-7-7|
D|------------------------------------------------------------------------------------------------|
A|------------------------------------------------------------------------------------------------|
E|------------------------------------------------------------------------------------------------|

e|---------------------------------------------------------------------------|
B|---------------------------------------------------------------------------|
G|-11-11-11-11-11-11-11-11--15-15-15-15-15-15-15-15--------------------------|
D|---------------------------------------------------------------------------|
A|---------------------------------------------------------------------------|
E|---------------------------------------------------------------------------|

e|------------------------------------------------------------------------------------------|
B|------------------------------------------------------------------------------------------|
G|------------------------------------------------------------------------------------------|
D|-9-9-------9-9-------9-9-------2---4------------------------------------------------------| 2x
A|-9-9-------9-9-------9-9-------2---4------------------------------------------------------|
E|-7-7-------7-7-------7-7-------0---2------------------------------------------------------|

Chorus:
e|------------------------------------------------------------------------------------------|
B|------------------------------------------------------------------------------------------|
G|------------------------------------------------------------------------------------------|
D|-9-9-------9-9-------9-9-------2-2--4-4---------------------------------------------------| 4x
A|-9-9-------9-9-------9-9-------2-2--4-4---------------------------------------------------|
E|-7-7--10-9-7-7--10-9-7-7--10-9-0-0--2-2---------------------------------------------------|

Outro:
e|---------------------------------------------------------------------------|
B|---------------------------------------------------------------------------|
G|-7-7-7-6-6--6-9-9-7-7--7-6-------------------------------------------------|
D|---------------------------------------------------------------------------|Fade 
A|---------------------------------------------------------------------------|Out...
E|---------------------------------------------------------------------------|


| /  slide up
| \  slide down
| h  hammer-on
| p  pull-off
| ~  vibrato
| +  harmonic
| x  Mute note
===============================================================================





Comments


Popular Rasmus tabs & chords
Guilty Bass Tabs
Funeral Song 2 Chords
Guilty 2 Chords
Live Forever 1 Chords
Someone Else Chords
F-f-f-falling 1 Tabs
Ice Intro Tabs
In The Shadows (Intro) Tabs
Liquid 1 Tabs
October And April Ukulele


Song lyrics



↑ Back to top | Tablatures and chords are parodies/interpretations of the original songs. You may use it for private study, scholarship, research or language learning purposes only
© 2014 AZChords.com Contact us | Privacy policy | DMCA | Add/correct tabs | Request tabs | Top 50 tabs