>
 >
Funeral Song

Funeral Song Guitar Tabs

Rasmus - Funeral Song chords, tabs, tablatures, lyrics

Guitar lessons | Add/correct | Request | Top 50 tabs Artists:  A B C D E F G H I J K L M N O P Q R S T U V W X Y Z 0-9

Funeral Song Guitar Tabs – Rasmus

CD, Sheet music, Poster

Do you like Funeral Song? Share with your friends now
Bass TabsChordsChords v2Chords v3TabsTabs v2Ukulele
The Rasmus  -  Funeral Song
Great song!!
Chords used in ths song
    Ab5       G5    Bbm5       C5        Cm5        D#5    B#5
e ----------------------------------------------------------------|
B ----------------------------------------------------------------|
G ------------------------------5--------------------8------------|
D --6--------5-------11---------5----------10--------8------8-----|
A --6--------5-------11---------3----------10--------6------8-----|
E---4--------3--------9---------------------8---------------6-----|


Intro
Riff1
D--12----8--10--12----10-----10-8-7-8----8-7-5-12-------


Or you can do

Cm5 - G5 - Ab5 - D#5------------------------------------------------|
e ------------------------------------------------------------------|
B ------------------------------------------------------------------|
G ----------------------------------------------------8-8-8---------|
D --10-10-10-10----10-10--x--5-5-5-5---5-5--x--6-6-x--8-8-8---------|
A --10-10-10-10----10-10--x--5-5-5-5---5-5--x--6-6--x-6-6-6---------|
E --8---8--8--8----8---8--x--3-3-3-3---3-3--x--4-4--x---------------|

Verse
e --------------------------------------|
B --------------------------------------|
G --------------------------------------|
D --------6---------------------5-------|
A -----6---------------------5----------|
E --4---------------------3-------------|

Ab5                        G5
   I dumped you again.
e ---------------------------------------|
B ---------------------------------------|
G -----------------------------------5---|
D --------11---------------------5-------|
A -----11---------------------3----------|
E --9------------------------------------|

Bbm5                    C5
   I dont understand.
e --------------------------------------|
B --------------------------------------|
G --------------------------------------|
D --------6---------------------5-------|
A -----6---------------------5----------|
E --4---------------------3-------------|
Ab5                        G5
   Its happened before.
e ---------------------------------------|
B ---------------------------------------|
G -----------------------------------5---|
D --------11---------------------5-------|
A -----11---------------------3----------|
E --9------------------------------------|
Bbm5                     C5
   Cant take it no more.
e --------------------------------------|
B --------------------------------------|
G --------------------------------------|
D --------6---------------------5-------|
A -----6---------------------5----------|
E --4---------------------3-------------|
Ab5                      G5
   These foolish games.
e ---------------------------------------|
B ---------------------------------------|
G -----------------------------------5---|
D --------11---------------------5-------|
A -----11---------------------3----------|
E --9------------------------------------|
Bbm5                              C5
   Always end up in confusion.
e --------------------------------------|
B --------------------------------------|
G --------------------------------------|
D --------6---------------------5-------|
A -----6---------------------5----------|
E --4---------------------3-------------|
Ab5                    G5
   Ill take you back
e ---------------------------------------|
B ---------------------------------------|
G -----------------------------------5---|
D --------11---------------------5-------|
A -----11---------------------3----------|
E --9------------------------------------|
Bbm5                              C5
   Just to leave you once again.


Chorus:
                            e ----------------------------------------|
                            B ----------------------------------------|
                            G ----------------------------------------|
                            D --------10----------------------6-------|
                            A -----10----------------------6----------|
                            E --8------------------------4------------|
                            Cm5                Ab5
                             I died in my dreams.
                             e ---------------------------------------|
                             B ---------------------------------------|
                             G --------------------------------8------|
                             D -----------------------------8---------|
                             A --------------------------6------------|
                             E ---------------------------------------|
                                                       D#5
                      Whats that supposed to mean?
                       e ---------------------------------------|
                       B ---------------------------------------|
                       G ---------------------------------------|
                       D --------------------8--------5---------|
                       A ----------------8---------5------------|
                       E -------------6---------3---------------|
                                      B#5 G5
                   Got lost in the fire.
                 e ----------------------------------------|
                 B ----------------------------------------|
                 G ----------------------------------------|
                 D --------10----------------------6-------|
                 A -----10----------------------6----------|
                 E --8------------------------4------------|
                      Cm5                Ab5
                      I died in my dreams.
                             e ---------------------------------------|
                             B ---------------------------------------|
                             G --------------------------------8------|
                             D -----------------------------8---------|
                             A --------------------------6------------|
                             E ---------------------------------------|
                                                          D#5
                      Reaching out for your hand
                   e ---------------------------------------|
                   B ---------------------------------------|
                   G ---------------------------------------|
                   D --------------------8--------5---------|
                   A ----------------8---------5------------|
                   E -------------6---------3---------------|
                                  B#5 G5
                    My fatal desire.


e --------------------------------------------|
B --------------------------------------------|
G -----------5---------------------4----------|
D -------6-----6---------------5-----5--------|
A -----6---6-----6-----------5---5-----5------|
E --4-----------------------3-----------------|

Ab5                        G5
Ive failed you again.
e ----------------------------------------------------|
B -------------------------------------4--------------|
G -----------10---------------------5-----5-----------|
D -------11----11-----------------5---5-----5---------|
A ----11---11-----11-----------3----------------------|
E --9-------------------------------------------------|
Bbm5                              C5
Cause I let you stay.
e --------------------------------------------|
B --------------------------------------------|
G -----------5--------------------4-----------|
D --------6----6--------------5-----5---------|
A -----6---6----6-----------5---5-----5-------|
E --4----------------------3------------------|

Ab5                        G5
I used to pretend
e ----------------------------------------------------|
B --------------------------------------4-------------|
G -----------10----------------------5----5-----------|
D -------11----11-----------------5---5-----5---------|
A ----11---11-----11------------3---------------------|
E --9-------------------------------------------------|
Bbm5                              C5
that I felt OK.

e --------------------------------------------|
B --------------------------------------------|
G -----------5--------------------4-----------|
D --------6----6----------------5----5--------|
A -----6---6-----6-----------5---5-----5------|
E --4----------------------3------------------|

Ab5                        G5
Just one big lie,
e ----------------------------------------------------|
B ---------------------------------------4------------|
G -----------10---------------------5----5------------|
D -------11-----11-----------------5---5----5---------|
A ----11---11-----11--------------3-------------------|
E --9-------------------------------------------------|
Bbm5                              C5
Such a perfect illusion.
e --------------------------------------------|
B --------------------------------------------|
G -----------5---------------------4----------|
D --------6----6---------------5-----5--------|
A -----6---6-----6-----------5---5----5-------|
E --4-----------------------3-----------------|

Ab5                        G5
I made you mine
e ----------------------------------------------------|
B ----------------------------------------4-----------|
G -----------10----------------------5---5------------|
D -------11----11-----------------5---5----5----------|
A ----11---11-----11--------------3-------------------|
E --9-------------------------------------------------|
Bbm5                              C5
Just to hurt you once again

Chorus:
                            e ---------------------------------------|
                            B ---------------------------------------|
                            G ---------------------------------------|
                            D --10--------------------------6--------|
                            A --10--x7--------------------6--x7------|
                            E ---8--------------------------4--------|
                            Cm5                Ab5
                             I died in my dreams.
                             e -----------------------------------------|
                             B -----------------------------------------|
                             G -----------------------------8-----------|
                             D -----------------------------8-x7--------|
                             A -----------------------------6-----------|
                             E -----------------------------------------|
                                                       D#5
                      Whats that supposed to mean?
                       e ---------------------------------------|
                       B ---------------------------------------|
                       G ---------------------------------------|
                       D -------------8--------5----------------|
                       A -------------8-x3---5--x3--------------|
                       E -------------6-------3-----------------|
                                      B#5 G5
                   Got lost in the fire.
                            e ---------------------------------------|
                            B ---------------------------------------|
                            G ---------------------------------------|
                            D --10--------------------------6--------|
                            A --10--x7--------------------6--x7------|
                            E ---8--------------------------4--------|
                      Cm5                Ab5
                      I died in my dreams.
                             e -----------------------------------------|
                             B -----------------------------------------|
                             G -----------------------------8-----------|
                             D -----------------------------8-x7--------|
                             A -----------------------------6-----------|
                             E -----------------------------------------|
                                                           D#5
                                      Reaching out for your hand
                             e ---------------------------------------|
                             B ---------------------------------------|
                             G ---------------------------------------|
                             D -------------8------5------------------|
                             A -------------8-x3---5--x3--------------|
                             E -------------6------3------------------|
                                            B#5   G5
                                     My fatal desire.

End like the intro

 Cm5                         G5               Ab5   D#5
e ---------------------------------------------------------------------|
B ---------------------------------------------------------------------|
G --------------------------------------------{--------8-8-8-}---------|
D --10-10-10-10----10-10--x--5-5-5-5---5-5--x-{-6-6-x--8-8-8-}---------|
A --10-10-10-10----10-10--x--5-5-5-5---5-5--x-{-6-6--x-6-6-6-}---------|
E --8---8--8--8----8---8--x--3-3-3-3---3-3--x-{-4-4--x-------}---------|
                                             |-------------------------|
                                    ( pauli repeat this part at least twice)

This a fabulous song. I made this tab from a video than u can see in this link 
may help u to folow the tab.

Please rate...or else.(just kiddin)





Comments


Popular Rasmus tabs & chords
Don't Let Go 1 Chords
Ice Chords
Living In A World Without You Chords
Lost And Lonely Chords
Madness Chords
Days Tabs
Justify Tabs
Tempo Tabs
Ten Black Roses Tabs
Open My Eyes Ukulele


Song lyrics



↑ Back to top | Tablatures and chords are parodies/interpretations of the original songs. You may use it for private study, scholarship, research or language learning purposes only
© 2014 AZChords.com Contact us | Privacy policy | DMCA | Add/correct tabs | Request tabs | Top 50 tabs