» » »

Rasmus, Funeral Song Bass tabs (ver.1)

Artists:  A B C D E F G H I J K L M N O P Q R S T U V W X Y Z # 

Funeral Song Bass tabs (ver.1)

Rasmus Tabs
 Rating:
4/5 (4 votes)
Funeral Song lessons Tabs too difficult? Try these video lessons and learn fast
                
Couldn't work out the bass for the riff, but i got the verse and chorus more or less perfect.

Verse
----------------------------------------------------------------|
----------------------------------------------------------------|
----------------------------------------------------------------|
4-------------3----9-------8---------4--------------3-----------|
I dumped you again, Dont understand, Its happened before,

----------------------------------------------------------------|
----------------------------------------------------------------|
---------------------7-9-9/11----11-------11---11---------------|
9-------------8---------------------11--8---10----10------------|
Can't take it no more            These foolish games,

----------------------------------------------------------------|
--------------------------------10------------------------------|
------------------------------10----11-----------11--------11---|
9-------------------8-----8/11-----------11----8----10----------|
Always end up in confusion,            Ill take you back,

----------------------------------------------------------------|
----------------------------------------------------------------|
----------------------------------------------------------------|
-10~~---------9~~-----------------------------------------------|
Just to leave you once again...

Chorus
----------------------------------------------------------------|
----------------------------------------------------------------|
--------------------------------------------6~~-----------------|
8---------6--4~~------------------------------------------------|
I died in my dreams, Whats that supposed to mean?

----------------------------------------------------------------|
----------------------------------------------------------------|
----------------------------------------------------------------|
----------------6-3---8---------6--4~~--------------------------|
Got lost in the fire, I died in my dreams reaching out for your

----------------------------------------------------------------|
----------------------------------------------------------------|
----------------------------------------------------------------|
6--------------6-3~~--------------------------------------------|
hand, my fatal desire...

Riff

Verse 2
I failed you again
Cause i let you stay
i used to pretend
that i felt ok
just one big lie
such a perfect illusion
i made you mine
just to hurt you once again...

Chorus
Riff
            
Submit corrections

comments powered by Disqus
↑ Back to top | Rasmus Bass for Funeral Song. Lyrics for acoustic guitar and electric guitar. Tablatures and chords are parodies/interpretations of the original songs. You may use it for private study, scholarship, research or language learning purposes only