» » »

Rasmus, Dangerous Kind Tabs (ver.1)

Artists:  A B C D E F G H I J K L M N O P Q R S T U V W X Y Z # 

Dangerous Kind Tabs (ver.1)

Rasmus Tabs
 Rating:
4.3/5 (6 votes)
Dangerous Kind lessons Tabs too difficult? Try these video lessons and learn fast
                -------------------------------------------------------------------------------
                             DANGEROUS KIND - The Rasmus
-------------------------------------------------------------------------------

Tuning: Standard (EADGBe)

Intro/Main Riff (play this as power chords if you want):
e|----------------------------------------------|
B|----------------------------------------------|
G|----------------------------------------------|
D|----------------------------------------------|
A|----------------------------------------------|
E|-2-3-2-3-33-2-3-2-3-25-5-7-5-7-77-5-7-5-7-77--|

Verse (Rest first time through, w/delay):
e|----------------|-------------|
B|----------------|-------------|
G|----------14-16-|-------------|
D|----12-14-------|- x6 -44444--|
A|-14-------------|------44444--|
E|----------------|------22222--|

Chorus (no delay):
e|-----------------------------------|
B|-----------------------------------|
G|-----------------4444444677777777--|
D|-22222222777777774444444677777777--|
A|-22222222777777772222222455555555--|
E|-0000000055555555------------------|

Main Riff

Verse (Guitar 1 does same as first verse, Guitar 2 plays this throughout):
e|--------|
B|--------|
G|--6677--|
D|--------|
A|--------|
E|--------|

Chorus
Main Riff

Bridge:
e|----------------------------------------------------------|
B|----------------------------------------------------------|
G|--------444444444444444677777777--------------------------|
D|-7777777444444444444444677777777777777774444444444444444--|
A|-7777777444444442222222455555555777777774444444444444444--|
E|-555555522222222----------------555555552222222222222222--|

Chorus
Main Riff to end


| /  slide up
| \  slide down
| h  hammer-on
| p  pull-off
| ~  vibrato
| +  harmonic
| x  Mute note
===============================================================================
            
Submit corrections

comments powered by Disqus
↑ Back to top | Rasmus Tabs for Dangerous Kind. Lyrics for acoustic guitar and electric guitar. Tablatures and chords are parodies/interpretations of the original songs. You may use it for private study, scholarship, research or language learning purposes only