» » »

Rasmus, Dancer In The Dark Tabs (ver.1)

Artists:  A B C D E F G H I J K L M N O P Q R S T U V W X Y Z # 

Dancer In The Dark Tabs (ver.1)

Rasmus Tabs
 Rating:
4/5 (5 votes)
Dancer In The Dark lessons Tabs too difficult? Try these video lessons and learn fast
1
                (Intro)
TAB for:          guitar
Album/Single:     Hide From The Sun – Limited Special Edition


Till now I have only the piano-Intro for this beautiful song ‘cause a friend of mine who 
the piano wanted it. But I think that it’s right, so I decided to put it online 
Have fun with it!

Signs:
~   =   let note ring


Intro: (0:00)
E|----------18----17----20-17-|-18-17----18-17----22-17~---|
H|-------15----15----15-------|-------15-------15----------|
G|----------------------------|----------------------------|
D|----------------------------|----------------------------|
A|----------------------------|----------------------------|
E|----------------------------|----------------------------|

E|----------18----17----20-17-|-18-17----18-17----22-17~---|
H|-------15----15----15-------|-------15-------15----------|
G|----------------------------|----------------------------|
D|----------------------------|----------------------------|
A|----------------------------|----------------------------|
E|----------------------------|----------------------------|

E|----------15----14----17-14-|-15-14----15-14----19-15~---|
H|-------12----12----12-------|-------12-------12----------|
G|----------------------------|----------------------------|
D|----------------------------|----------------------------|
A|----------------------------|----------------------------|
E|----------------------------|----------------------------|

E|----------13----12----15-12-|-13-12----13-12----17-12~---|
H|-------10----10----10-------|-------10-------10----------|
G|----------------------------|----------------------------|
D|----------------------------|----------------------------|
A|----------------------------|----------------------------|
E|----------------------------|----------------------------|

E|----------13----12----15-12-|-13-12----13-12----17~~-----|
H|-------10----10----10-------|-------10-------10----------|
G|----------------------------|----------------------------|
D|----------------------------|----------------------------|
A|----------------------------|----------------------------|
E|----------------------------|----------------------------|
            
Submit corrections

comments powered by Disqus
↑ Back to top | Rasmus Tabs for Dancer In The Dark. Lyrics for acoustic guitar and electric guitar. 1 Tablatures and chords are parodies/interpretations of the original songs. You may use it for private study, scholarship, research or language learning purposes only