>
 >
Chill 1

Chill 1 Guitar Tabs

Rasmus - Chill 1 chords, tabs, tablatures, lyrics

Guitar lessons | Add/correct | Request | Top 50 tabs Artists:  A B C D E F G H I J K L M N O P Q R S T U V W X Y Z 0-9

Chill 1 Guitar Tabs – Rasmus

CD, Sheet music, Poster

Do you like Chill 1? Share with your friends now
ChordsTabsTabs v2Ukulele
Artist : The Rasmus
Song : Chill
Album : Into

This is my favourite song of The Rasmus, the lyrics are great and the rythim too...

Intro:
E|-3-3---2~-|
B|-3-3---3~-|
G|-0-0---4~-|
D|-2-2---2~-|
A|-2-2---2~-|x2
E|-0-0------|

E|---------------------------------------------------|
B|---------------------------------------------------|
G|--------7-4---------7-4------------4---------------|
D|-5-4-5-------5-4-5--------------7------4h5p4--4--4-|
A|-------------------------5-4-5---------------------|x2
E|---------------------------------------------------|

Verse: 
E|-----------------------------------|
B|-----------------------------------|
G|-9-9--9-9-9-9--9---7-7-7-7--5-5--5-|
D|-9-9--9-9-9-9--9---7-7-7-7--5-5--5-|
A|-7-7--7-7-7-7--7---5-5-5-5--3-3--3-|x2
E|-----------------------------------|

E|---------------------------------------------|
B|---------------------------------------------|
G|--------7-4---------7-4------------4---------|
D|-5-4-5-------5-4-5--------------7------4h5p4-|
A|-------------------------5-4-5---------------|
E|---------------------------------------------|

E|-----------------------------------|
B|-----------------------------------|
G|-9-9--9-9-9-9--9---7-7-7-7--5-5--5-|
D|-9-9--9-9-9-9--9---7-7-7-7--5-5--5-|
A|-7-7--7-7-7-7--7---5-5-5-5--3-3--3-|x2
E|-----------------------------------|

Prechorus:
E|------------|
B|------------|
G|-4---4--4b/-|
D|-4---4--4b/-|
A|-2---2------|
E|------------|

Chorus:
E|---------------------------------------------------------------------------------|
B|-3-3-3-3----------------3-3-3-3----------------3-3-3-3---------------------------|
G|-5-5-5-5----------------5-5-5-5----------------5-5-5-5----------7-7-7-7-7-7-7-7~-|
D|-5-5-5-5-5-5-5-5-5-4----5-5-5-5-5-5-5-5-5-4----5-5-5-5-2-2-2-2--7-7-7-7-7-7-7-7~-|
A|-3-3-3-3-5-5-5-5-----2--3-3-3-3-5-5-5-5-----2--3-3-3-3-2-2-2-2--5-5-5-5-5-5-5-5~-|
E|---------3-3-3-3----------------3-3-3-3----------------0-0-0-0-------------------|


E|---------------------------------------------------|
B|---------------------------------------------------|
G|--------7-4---------7-4------------4---------------|
D|-5-4-5-------5-4-5--------------7------4h5p4--4--4-|
A|-------------------------5-4-5---------------------|
E|---------------------------------------------------|

Verse 2:
E|-----------------------------------|
B|-----------------------------------|
G|-9-9--9-9-9-9--9---7-7-7-7--5-5--5-|
D|-9-9--9-9-9-9--9---7-7-7-7--5-5--5-|
A|-7-7--7-7-7-7--7---5-5-5-5--3-3--3-|x2
E|-----------------------------------|

Prechorus:
E|------------|
B|------------|
G|-4---4--4b/-|
D|-4---4--4b/-|
A|-2---2------|
E|------------|

Chorus:
E|---------------------------------------------------------------------------------|
B|-3-3-3-3----------------3-3-3-3----------------3-3-3-3---------------------------|
G|-5-5-5-5----------------5-5-5-5----------------5-5-5-5----------7-7-7-7-7-7-7-7~-|
D|-5-5-5-5-5-5-5-5-5-4----5-5-5-5-5-5-5-5-5-4----5-5-5-5-2-2-2-2--7-7-7-7-7-7-7-7~-|
A|-3-3-3-3-5-5-5-5-----2--3-3-3-3-5-5-5-5-----2--3-3-3-3-2-2-2-2--5-5-5-5-5-5-5-5~-|
E|---------3-3-3-3----------------3-3-3-3----------------0-0-0-0-------------------|

Bridge:
E|--------------------------------------------------------------|
B|-3-3-3-3-----------3-3-3-3-----------------3~~------3~~-------|
G|-5-5-5-5-----------5-5-5-5--7-7-7-7-7-7-7--5~~------5~~-7-7-7-|
D|-5-5-5-5--2-2-2-2--5-5-5-5--7-7-7-7-7-7-7--5~~--2~--5~~-7-7-7-|
A|-3-3-3-3--2-2-2-2--3-3-3-3--5-5-5-5-5-5-5--3~~--2~--3~~-5-5-5-|
E|----------0-0-0-0-------------------------------0~------------|


Chorus:
E|---------------------------------------------------------------------------------|
B|-3-3-3-3----------------3-3-3-3----------------3-3-3-3---------------------------|
G|-5-5-5-5----------------5-5-5-5----------------5-5-5-5----------7-7-7-7-7-7-7-7~-|
D|-5-5-5-5-5-5-5-5-5-4----5-5-5-5-5-5-5-5-5-4----5-5-5-5-2-2-2-2--7-7-7-7-7-7-7-7~-|
A|-3-3-3-3-5-5-5-5-----2--3-3-3-3-5-5-5-5-----2--3-3-3-3-2-2-2-2--5-5-5-5-5-5-5-5~-|x2
E|---------3-3-3-3----------------3-3-3-3----------------0-0-0-0-------------------|

End:
E|---------------------------------------------------|
B|---------------------------------------------------|
G|--------7-4---------7-4------------4---------------|
D|-5-4-5-------5-4-5--------------7------4h5p4--4--4-|
A|-------------------------5-4-5---------------------|x5
E|---------------------------------------------------|

E|-3~~-|
B|-3~~-|
G|-0~~-|
D|-2~~-|
A|-2~~-|
E|-0~~-|

Easy!
Plz reate!
PEACE!





Comments


Popular Rasmus tabs & chords
F-f-f-falling 1 Chords
Swimming With The Kids Chords
Everyday 2 Tabs
Myself Tabs
Rakkauslaulu 1 Tabs
Sail Away Live Tabs
Shame Tabs
Smash Tabs
F-f-f-falling Ukulele
Ps Ukulele


Song lyrics



↑ Back to top | Tablatures and chords are parodies/interpretations of the original songs. You may use it for private study, scholarship, research or language learning purposes only
© 2014 AZChords.com Contact us | Privacy policy | DMCA | Add/correct tabs | Request tabs | Top 50 tabs