>
 >
The Glorified Collector

The Glorified Collector Guitar Tabs

Rascals - The Glorified Collector chords, tabs, tablatures, lyrics

Guitar lessons | Add/correct | Request | Top 50 tabs Artists:  A B C D E F G H I J K L M N O P Q R S T U V W X Y Z 0-9

The Glorified Collector Guitar Tabs – Rascals

CD, Sheet music, Poster

Do you like The Glorified Collector? Share with your friends now
Tabs
-------------------------------------------------------------------------------
              The Glorified Collector  The Rascals
-------------------------------------------------------------------------------

Intro

e|---------------------|
B|---------------------|
G|---------------------|
D|-2---2-2---2-5-------|
A|-2---2-2---2-5-------|
E|-0---0-0---0-3-------|

Verse

e|-5----5---3s5---------------------------------|
B|-5----5---3s5---7v-delay effect---------------|
G|-5----5---3s5---------------------------------| repeat
D|----------------------------------------------|
A|----------------------------------------------|
E|----------------------------------------------|

(0:15)

e|--------------------------------------------|
B|--------------------------------------------|
G|--------------------------------------------| back to verse
D|-9-9-9-9-9-9-9-9-12-12-12-12-12-12-12-12----|
A|-7-7-7-7-7-7-7-7-10-10-10-10-10-10-10-10----|
E|--------------------------------------------|

(0:30)

e|--------------------------------------------------------------------|
B|--------------------------------------------------------------------|
G|--------------------------------------------------------------------|
D|-9-9-9-9-9-9-9-9-12-12-12-12-12-12-12-12-14-14-14-14-14-14-14-14----|
A|-7-7-7-7-7-7-7-7-10-10-10-10-10-10-10-10-12-12-12-12-12-12-12-12----|
E|--------------------------------------------------------------------|

e|--------------------------|
B|--------------------------|
G|--------------------------| x2
D|-14-14-14-14-14-14-14-14--|
A|-12-12-12-12-12-12-12-12--|
E|--------------------------|

e|--------------------------------------------|
B|--------------------------------------------|
G|--------------------------------------------| back to verse
D|-9-9-9-9-9-9-9-9-12-12-12-12-12-12-12-12----|
A|-7-7-7-7-7-7-7-7-10-10-10-10-10-10-10-10----|
E|--------------------------------------------|

(0:51)

e|--------------------------------------------------------------------|
B|--------------------------------------------------------------------|
G|--------------------------------------------------------------------|
D|-9-9-9-9-9-9-9-9-12-12-12-12-12-12-12-12-14-14-14-14-14-14-14-14----|
A|-7-7-7-7-7-7-7-7-10-10-10-10-10-10-10-10-12-12-12-12-12-12-12-12----|
E|--------------------------------------------------------------------|

e|-------------------------------------------------------------------------------|
B|-------------------------------------------------------------------------------|
G|-------------------------------------------------------------------------------|
D|-14-14-14-14-14-14-14-14-------------------------------------------------------|
A|-12-12-12-12-12-12-12-12-------------------------------------------------------|
E|-------------------------------------------------------------------------------|
e|-------------------------------------------------------------------------------|
B|-------------------------------------------------------------------------------|
G|------------------------------------------14141414141414141414141414141414-----|
D|-9-9-9-9-9-9-9-9-12-12-12-12-12-12-12-12---------------------------------------|
A|-7-7-7-7-7-7-7-7-10-10-10-10-10-10-10-10---------------------------------------|
E|-------------------------------------------------------------------------------|

e|-----------------------------------------------------------------|
B|-----------------------------------------------------------------|
G|-----------------14141414141414141414141414141414----------------|
D|-2---2-2---2-5------------------------------------2---2-2---2--5-|
A|-2---2-2---2-5------------------------------------2---2-2---2--5-|
E|-0---0-0---0-3------------------------------------0---0-0---0--3-|

(1:13)

  Am                                       Dm
e|-------------------------------------------------------------------------------|
B|---------5---------5---------5---------5---------6--------6---------6--------6-|
G|---5---------5---------5---------5---------7---------7--------7---------7------|
D|-7---7-7---7---7-7---7---7-7---7---7-7---7---7-7---7---7-7--7---7-7---7---7-7--|
A|-------------------------------------------------------------------------------|
E|-------------------------------------------------------------------------------|

  Am                                       Dm
e|---------------------------------------------------------------5555555--|
B|---------5---------5---------5---------5---------6--------6----6666666--|
G|---5---------5---------5---------5---------7---------7---------7777777--|
D|-7---7-7---7---7-7---7---7-7---7---7-7---7---7-7---7---7-7--7--7777777--|
A|------------------------------------------------------------------------|
E|------------------------------------------------------------------------|

e|-------------------------------------------------------------|
B|-------------------------------------------------------------|
G|-------------------------------------------------------------|
D|-------------------------------------------------------------|
A|-------------------------------------------------------------|
E|-3s5-5----5--8--7----7-7--8--7--5----5--8--7----7-7---3--5---|

(1:43)

e|------------------------------------------------------------------|
B|------------------------------------------------------------------|
G|------------------------------------------------------------------|
D|------------------------------------------------------------------|
A|------------------------------------------------------------------|
E|-5-5-5-5-5-5-5-5-5-5-5-5-5-5-5-5-5-5-5-5-5-5-5-5-5-5-5-5-5-5-5-5--|


e|-----------------------------------------------------------------------------|
B|-----------------------------------------------------------------------------|
G|------------------------------------------14141414141414141414141414141414---| x3
D|-9-9-9-9-9-9-9-9-12-12-12-12-12-12-12-12-------------------------------------|
A|-7-7-7-7-7-7-7-7-10-10-10-10-10-10-10-10-------------------------------------|
E|-----------------------------------------------------------------------------|


e|-----------------------------------------------------------------|
B|-----------------------------------------------------------------|
G|-----------------------------------------------------------------|
D|-2---2-2---2-5---7-7-7-7-7-7-7-7-7-7-7-7-7-7-7-7--2---2-2---2-5--|
A|-2---2-2---2-5---7-7-7-7-7-7-7-7-7-7-7-7-7-7-7-7--2---2-2---2-5--|
E|-0---0-0---0-3---5-5-5-5-5-5-5-5-5-5-5-5-5-5-5-5--0---0-0---0-3--|

(2:20)
e|---------------------------------------------------------------------|
B|---------------------------------------------------------------------|
G|----------------------------------9-9-9-9-9-9-9-9-9-9-9-9-9-9-9-9----| x4
D|-7-7-7-7-7-7-7-7-7-7-7-7-7-7-7-7--9-9-9-9-9-9-9-9-9-9-9-9-9-9-9-9----|
A|-7-7-7-7-7-7-7-7-7-7-7-7-7-7-7-7--7-7-7-7-7-7-7-7-7-7-7-7-7-7-7-7----|
E|-5-5-5-5-5-5-5-5-5-5-5-5-5-5-5-5-------------------------------------|

End on A5

I hope this helps. Cheers.

| /  slide up
| \  slide down
| h  hammer-on
| p  pull-off
| ~  vibrato
| +  harmonic
| x  Mute note
===============================================================================





Comments


Popular Rascals tabs & chords
Chills Of Fever Chords
Good Lovin' Chords
How Can I Be Sure Chords
Ive Been Lonely Too Long Chords
Bond Girl Acostic Tabs
Is It Too Late Tabs
Out Of Dreams 1 Tabs
Stockings To Suit Tabs
Id Be Lying To You Ukulele
Ive Been Lonely Too Long Ukulele


Song lyrics



↑ Back to top | Tablatures and chords are parodies/interpretations of the original songs. You may use it for private study, scholarship, research or language learning purposes only
© 2014 AZChords.com Contact us | Privacy policy | DMCA | Add/correct tabs | Request tabs | Top 50 tabs