» » »

Rascals, Suspicious Wit Tabs (ver.1)

Artists:  A B C D E F G H I J K L M N O P Q R S T U V W X Y Z # 

Suspicious Wit Tabs (ver.1)

Rascals Tabs
Rating:
3/5 (1 vote)
Suspicious Wit lessons Tabs too difficult? Try these video lessons and learn fast
                
I tryed my best to get this spot on but i cant quite get the solo, i can get a few notes 
i'm just goin to write how i play it and hopefully someone will put it up later.

Tuning:standard

intro
e|------------------------------   play at the  -------------------------|
B|------------------------------   end of intro -------------------------|
G|------------------------------ x2             --4----------------------|
D|--99999999/-44444444----------                --4----------------------|
A|--99999999/-44444444----------                --2----------------------|
E|--77777777/-22222222----------                -------------------------|

instrumental organ thingy

"the arranged dates....
e|---77---------22-------------------------------------------------------|
B|---77---------22-------------------------------------------------------|
G|---77---------22-------------------------------------------------------| x3
D|---99---------44-------------------------------------------------------|
A|---99---------44-------------------------------------------------------|
E|-----------------------------------------------------------------------|

chrous (i use a whammy bar on the ~ notes up to u)
"it could only.....
e|-----------------------------------------------------------------------|
B|-----------------------------------------------------------------------|
G|-----------------------------------------------------------------------| x4
D|-----------------------------------------------------------------------|
A|--2~-------------------------------------------------------------------|
E|-------------987--2~---------------------------------------------------|

solo (again u could use a whammy up to u)

e|------------------------------------15-------------15-------------------|
B|------------------8--6-4-5p6/---1414----10----1414-----10---------------|
G|------6-5-5-6--8--------------------------------------------------------|
D|--6-8-------------------------------------------------------------------|
A|------------------------------------------------------------------------|
E|------------------------------------------------------------------------|

verse

"gambling debts.....
e|-----------------------------------------------------------------------|
B|-----------------------------------------------------------------------|
G|-----------------------------------------------------------------------| x2
D|-----------------------------------------------------------------------|
A|---2~------------------------------------------------------------------|
E|---------------------2~------------------------------------------------|

"arranged sounds...
e|---77---------22-------------------------------------------------------|
B|---77---------22-------------------------------------------------------|
G|---77---------22-------------------------------------------------------| x2
D|---99---------44-------------------------------------------------------|
A|---99---------44-------------------------------------------------------|
E|-----------------------------------------------------------------------|


chrous

"i'm lookin for.........

e|-----------------------------------------------------------------------|
B|-----------------------------------------------------------------------|
G|-----------------------------------------------------------------------| x4
D|-----------------------------------------------------------------------|
A|--2~-------------------------------------------------------------------|
E|-------------987--2~---------------------------------------------------|


2nd guitar comes in with
"and if i.....
e|-----------------------------------------------------------------------|
B|-----------------------------------------------------------------------|
G|-----------------------------------------------------------------------| x4
D|--99---44--------------------------------------------------------------|
A|--99---44--------------------------------------------------------------|
E|--77---22--------------------------------------------------------------|

then this
(11111111 der 11's not 1's)
e|--------------------------------------------------------------------------|
B|--------------------------------------------------------------------------|
G|-------------------------------------------------------------13131313-----|
D|-----------------------------------12-----------12--14141414--------------|
A|--2~--4~--7~--12~-------14-14141414-----14141414--------------------------|
E|--------------------------------------------------------------------------|

e|------------------------------15-----------15~----------------------------|
B|------------10101010------1414----10--1414--------------------------------|
G|--11111111----------------------------------------------------------------|
D|--------------------------------------------------------------------------|
A|--------------------------------------------------------------------------|
E|--------------------------------------------------------------------------|


e|-----------------------------------------------------------------------|
B|-----------------------------------------------------------------------|
G|-----------------------------------------------------------------------| x2
D|--99999999/-44444444---9-----------------------------------------------|
A|--99999999/-44444444---9-----------------------------------------------|
E|--77777777/-22222222---7-----------------------------------------------|

| /  slide up
| \  slide down
| h  hammer-on
| p  pull-off
| ~  vibrato
| +  harmonic
| x  Mute note
===============================================================================
            

comments powered by Disqus
↑ Back to top | Rascals Tabs for Suspicious Wit. Lyrics for acoustic guitar and electric guitar. Tablatures and chords are parodies/interpretations of the original songs. You may use it for private study, scholarship, research or language learning purposes only