» » »

Stockings To Suit Tabs (ver.1)

Artists:  A B C D E F G H I J K L M N O P Q R S T U V W X Y Z # 

Stockings To Suit Tabs (ver.1)

Rascals
Rating:
5/5 (1 vote)

Tabs too difficult? Try these video lessons and learn fast.
                -------------------------------------------------------------------------------
               Stockings To Suit – The Rascals
-------------------------------------------------------------------------------

Note: some of this song is in 6/8 time signature e.g.(1:11)

Intro
   (tremolo picking)
e|-8888888888888888-5555555555555555-12121212121212121212121212121212--------|
B|---------------------------------------------------------------------------|
G|---------------------------------------------------------------------------| x2
D|---------------------------------------------------------------------------|    
A|---------------------------------------------------------------------------|   
E|---------------------------------------------------------------------------|   

e|-8888888888888888-5555555555555555-|
B|-----------------------------------|
G|-----------------------------------|
D|-----------------------------------|    
A|-----------------------------------|   
E|-----------------------------------|   

(0:19)

e|-----------------------------------|
B|-----------------------------------|
G|-----------------------------------| x2 (bass)
D|-----------------------------------|
A|---7b8r----7b8r----7b8r----7b8r----|
E|-0-------0-------0-------0---------|


e|-------------------------------------------------------------------------------------
B|-------------------------------------------------------------------------------------
G|-9--9b10r---9—-9b10r---9--9b10r---9—9b10r--9s15-15-15-15-15-15-15-15-14-14-14-14s18--
D|-------------------------------------------------------------------------------------
A|-------------------------------------------------------------------------------------
E|-------------------------------------------------------------------------------------

e|---------------|
B|---------------|
G|-5--7—-8--10---| x2
D|---------------|
A|---------------|
E|---------------|


(1:11)

e|-7-7-7-7-7-7--8-8-8-8-8-8--5-5-5-5-5-5---|
B|-8-8-8-8-8-8--8-8-8-8-8-8--5-5-5-5-5-5---|
G|-9-9-9-9-9-9--9-9-9-9-9-9--5-5-5-5-5-5---| x8
D|-9-9-9-9-9-9--101010101010-7-7-7-7-7-7---|
A|-7-7-7-7-7-7--101010101010-7-7-7-7-7-7---|
E|--------------8-8-8-8-8-8--5-5-5-5-5-5---|

(1:48)

e|-2-2-2-2-2-2--4-4-4-4-4-4--4-4-4-4-4-4--5-5-5-5-5-5--------------------------|
B|-2-2-2-2-2-2--4-4-4-4-4-4--5-5-5-5-5-5--5-5-5-5-5-5--------------------------|
G|-2-2-2-2-2-2--4-4-4-4-4-4--6-6-6-6-6-6--6-6-6-6-6-6--7-7-7-7-7-7-7-7-7-7-7-7-|
D|-4-4-4-4-4-4--6-6-6-6-6-6--6-6-6-6-6-6--7-7-7-7-7-7--7-7-7-7-7-7-7-7-7-7-7-7-|
A|-4-4-4-4-4-4--6-6-6-6-6-6--4-4-4-4-4-4--7-7-7-7-7-7--5-5-5-5-5-5-5-5-5-5-5-5-|
E|-2-2-2-2-2-2--4-4-4-4-4-4---------------5-5-5-5-5-5--------------------------|

e|-------------------------------------------------------------------|
B|-------------------------------------------------------------------|
G|-------------------------------------------------------------------| x4
D|-------------------------------------------------------------------|
A|-7--------7---------7----------7-----------------------------------|
E|----8--5------8--5------8--5------8--5---4-4-4-5-5-5-8-8-8-7-7-7---|
        
         E5                                C5       A5
e|------|-12121212121212121212121212121212-88888888-55555555---|
B|------|------------------------------------------------------|
G|------|------------------------------------------------------| 
D|------|------------------------------------------------------|
A|-7v---|------------------------------------------------------|
E|------|------------------------------------------------------|

Repeat E5/C5/A5 chord progression until end bit.


End on E5

I think thats about it. Cheers.

| b  bend
| r  release
| s  slide
| p  pull-off
| v  vibrato
| x  Mute note
===============================================================================
            
Tabs too difficult? Try these video lessons and learn fast.


comments powered by Disqus
↑ Back to top | Tablatures and chords are parodies/interpretations of the original songs. You may use it for private study, scholarship, research or language learning purposes only