» » »

I'll Give You Sympathy Tabs (ver.1)

Artists:  A B C D E F G H I J K L M N O P Q R S T U V W X Y Z # 

I'll Give You Sympathy Tabs (ver.1)

Rascals
Rating:
0/5 (0 votes)

Hard to play? Try these video lessons and learn fast.
                -------------------------------------------------------------------------------
               I’ll Give you Sympathy - The Rascals
-------------------------------------------------------------------------------


Intro

e|--------------------------------------------------------------------1---|
B|--------------------------------------------------------------------2---|
G|-----------5-5-5-5---------5-5-5-5---------5-5-5-5---------5-5-5-5--3---|
D|-2-3-3-3-3-5-5-5-5-3-3-3-3-5-5-5-5-3-3-3-3-5-5-5-5-3-3-3-3-5-5-5-5--3---|
A|-2-3-3-3-3-3-3-3-3-3-3-3-3-3-3-3-3-3-3-3-3-3-3-3-3-3-3-3-3-3-3-3-3--1---|
E|-0-1-1-1-1---------1-1-1-1---------1-1-1-1---------1-1-1-1--------------|

Verse 

e|-4--4---3--3---1-1-1-1-1-1-1-1----|
B|-2--2---2--2---1-1-1-1-1-1-1-1----|
G|-3--3---3--3---1-1-1-1-1-1-1-1----| x8
D|-3--3---2--2---3-3-3-3-3-3-3-3----|
A|---------------3-3-3-3-3-3-3-3----|
E|----------------------------------|

Pre-Chorus

e|----------------------------------------------------------|
B|----------------------------------------------------------|
G|--------------------3-3-3-3---5-5-5-5---3-3-3-3---5-5-5-5-| x2
D|-3-3-3-3-3-3-3-3----3-3-3-3---5-5-5-5---3-3-3-3---5-5-5-5-|
A|-3-3-3-3-3-3-3-3----1-1-1-1---3-3-3-3---1-1-1-1---3-3-3-3-|
E|-1-1-1-1-1-1-1-1------------------------------------------|
                        
                        ‘all you want is more…’
e|------------------------------------------------|
B|------------------------------------------------|
G|-3-3-3-3-3-3-3-3-----5--------------------------|
D|-3-3-3-3-3-3-3-3-----5-x24----------------------|
A|-1-1-1-1-1-1-1-1-----3--------------------------|
E|------------------------------------------------|

Chorus
     
         ‘I’ll give you sympathy’
e|---------------------------------------------------|
B|---------------------------------------------------|
G|----------5-5-5-5---------5-5-5-5---------5-5-5-5--|
D|--3-3-3-3-5-5-5-5-3-3-3-3-5-5-5-5-3-3-3-3-5-5-5-5--|
A|--3-3-3-3-3-3-3-3-3-3-3-3-3-3-3-3-3-3-3-3-3-3-3-3--|
E|--1-1-1-1---------1-1-1-1---------1-1-1-1----------|

e|-----------------------------------------------------|
B|-----------------------------------------------------|
G|------------------5-5-5-5-5-5-5-5-5-5-5-5-5-5-5-5----|
D|-6-6-6-6-6-6-6-6--5-5-5-5-5-5-5-5-5-5-5-5-5-5-5-5----|
A|-6-6-6-6-6-6-6-6--3-3-3-3-3-3-3-3-3-3-3-3-3-3-3-3----|
E|-4-4-4-4-4-4-4-4-------------------------------------|

Solo

e|---------------------------------------------------------------------------|
B|-----------------------------------------6-------8b9r------5-4-5-4-5-4-5-4-|
G|--------------------5--6-3-4-5--6-3-4-5----5-6-5------5-6------------------|
D|---------------------------------------------------------------------------|
A|------2-3-4-3-2-3----------------------------------------------------------|
E|-1--1----------------------------------------------------------------------|

e|---------------------------------------------------------------------------|
B|-8-7-8-7-8-7-8-8s11-11bv--11s14-14v----------------------------------------|
G|---------------------------------------------------------------------------|
D|---------------------------------------------------------------------------|
A|---------------------------------------------------------------------------|
E|---------------------------------------------------------------------------|


That’s about it. Cheers.


| b  bend
| s  slide
| r  release bend
| v  vibrato
| +  harmonic
| x  Mute note
            
Hard to play? Try these video lessons and learn fast. | Correct




comments powered by Disqus
↑ Back to top | Tablatures and chords are parodies/interpretations of the original songs. You may use it for private study, scholarship, research or language learning purposes only