>
 >
Good Lovin'

Good Lovin' Guitar Tabs

Rascals - Good Lovin' chords, tabs, tablatures, lyrics

Guitar lessons | Add/correct | Request | Top 50 tabs Artists:  A B C D E F G H I J K L M N O P Q R S T U V W X Y Z 0-9

Good Lovin' Guitar Tabs – Rascals

CD, Sheet music, Poster

Do you like Good Lovin'? Share with your friends now
ChordsTabs
-------------------------------------------------------------------------------
                             Good Lovin - The Rascals
-------------------------------------------------------------------------------

Tuning: Standard  CHORDS: G x55433, D x5333x, A X77655, F x33211


                 G    D   G  A  G    D    G  A  G    D   G  A  
ONE, TWO, THREE, GOOD LOVE,     GOOD LOVE,      GOOD LOVE,

G    D   G5\A5/G5 D5 G5\A5/G5     G     D     G A G  D  G A G
GOOD LOVE.                        I WAS FEELIN,   SO BAD,

D          G      A      G           D  G A G      D       G  A 
I ASKED MY FAMILY DOCTOR JUST WHAT I HAD.   I SAID DOCTOR, DOCTOR,

A     D   G  A                D        G      A      D   G  A  
MR. M.D., DOCTOR, NOW CAN YOU TELL ME, WHAT'S AILING ME, DOCTOR.

A        D     G     D     G     D     G     A     G     A     G
HE SAID, YEAH, YEAH, YEAH, YEAH, YEAH, YEAH, YEAH, YEAH, YEAH, YEAH,

G     F    F F F F        A                    D      G
YES INDEED,      ALL I, I REALLY NEED, IS GOOD LOVIN, NOW GIMME THAT

A         G           D       G     A       G          D
GOOD GOOD LOVIN, GOOD LOVIN.  ALL I NEED IS LOVE, GOOD LOVIN,

G    A     G          D    G5\A5/G5 D5 G5\A5/G5  G         D     G A 
GOOD LOVIN BABY, GOOD LOVE.                      NOW HONEY PLEASE,

G          D    G A G D        G         A            D 
SQUEEZE ME TIGHT,     DON'T YA WANT YOUR BABY TO BE ALRIGHT,     

G    A              D     G  A               D     G        A
BE ALRIGHT.  I SAID BABY, BABY, NOW IT'S FOR SURE, IT'S FOR SURE,

A         D      G    A               D     G       A             
I GOT THE FEVER, YEAH-AH, YOU GOT THE CURE, GOT THE CURE. 

A          D     G     D     G     G     G     A     G     A     G 
EVERYBODY, YEAH, YEAH, YEAH, YEAH, YEAH, YEAH, YEAH, YEAH, YEAH, YEAH,

G     F   F F F F     A                    D     G       A   
YES INDEED,     ALL I REALLY NEED, IS GOOD LOVE, COME ON GIVE ME THAT
      
G           D      G     A       G          A     G          D 
LOVIN, GOOD LOVIN, ALL I NEED IS LOVE, GOOD LOVIN BABY, GOOD LOVE.

SOLO:  G5\A5/G5 D5 G5\A5/G5, (then, organ-arranged for guitar)

e|----------3-2-----------------3-2---------------------3-3-3-3-3-3----------|
B|-3~---3-5-----3------3~---3-5-----3--------7-7-7-7-7--3-3-3-3-3-3----------|
G|----------------4p2-----------------4p2----7-7-7-7-7-----------------------|
D|---------------------------------------------------------------------------|
A|---------------------------------------------------------------------------|
E|---------------------------------------------------------------------------|

e|-5-5-5-5-5--3-3-3-3-3-----------3-3-3-3-3--5-5-5-5-5--3-3-3-3-3------------|
B|-5-5-5-5-5--3-3-3-3-3-----------3-3-3-3-3--5-5-5-5-5--3-3-3-3-3------------|
G|----------------------7-7-7-7-7--------------------------------------------|
D|----------------------7-7-7-7-7--------------------------------------------|
A|---------------------------------------------------------------------------|
E|---------------------------------------------------------------------------|

e|-2----2-4---4-5~555555555--------------------------------------------------|
B|---3------5----------------------------------------------------------------|
G|---------------------------------------------------------------------------|
D|---------------------------------------------------------------------------|
A|---------------------------------------------------------------------------|
E|---------------------------------------------------------------------------|

G    D   G A G    D    G A G    D     G     A       G          D 
GOOD LOVE,   GOOD LOVIN,   GOOD LOVE, ALL I NEED IS LOVE, GOOD LOVE, 

G     A       G          D     G     A            G             D       
ALL I WANT IS LOVE, GOOD LOVE, LOVIN EARLY IN THE MORNING, GOOD LOVE, 

G     A       G          G                D     A 
LOVIN LATE AT NIGHT NOW, LOVE, LOVE, GOOD LOVE, LOVE, LOVE, LOVE, LOVE 

D    G5\A5/G5 D G A G A G D G A G A G D
LOVE.

| /  slide up
| \  slide down
| h  hammer-on
| p  pull-off
| ~  vibrato
| +  harmonic
| x  Mute note
===============================================================================





Comments


Popular Rascals tabs & chords
Out Of Dreams Bass Tabs
Chills Of Fever Chords
Ill Give You Sympathy Chords
Bond Girl Acostic Tabs
How Do I End This? Tabs
Out Of Dreams Tabs
Suspicious Wit Tabs
Chills Of Fever Ukulele
Ill Give You Sympathy Ukulele
People Got To Be Free Ukulele


Song lyrics



↑ Back to top | Tablatures and chords are parodies/interpretations of the original songs. You may use it for private study, scholarship, research or language learning purposes only
© 2014 AZChords.com Contact us | Privacy policy | DMCA | Add/correct tabs | Request tabs | Top 50 tabs