>
 >
Freakbeat Phantom

Freakbeat Phantom Guitar Tabs

Rascals - Freakbeat Phantom chords, tabs, tablatures, lyrics

Guitar lessons | Add/correct | Request | Top 50 tabs Artists:  A B C D E F G H I J K L M N O P Q R S T U V W X Y Z 0-9

Freakbeat Phantom Guitar Tabs – Rascals

CD, Sheet music, Poster

Do you like Freakbeat Phantom? Share with your friends now
Tabs
this is a great song to play and to listen to. i think its right the intro bit is
probably wrong cause he uses a lot of effects. 
THE SYMBOL x/ IS PICK SCRAPE i didn't know the symbol for it sorry. 




intro 
light pressure on the strings


e|--4----4-------------------4--------|
B|--4----5-------------------4--------|
G|--4----4------10-----------4--------|
D|--------------10--------------------|
A|--------------8----x/---------------|
E|------------------------------------|

verse
e|--4----4----------4-------------|
B|--4----5----------4-------------|
G|--4----4----10----4-------------|
D|--6---------10----6-------------|
A|--6---------8-----6-------------|
E|--------------------------------|

pre chrous

e|--4--4--4--4--4--4--4--4------------------4--4--4--4-------|
B|--4--4--4--4--5--5--5--5------------------4--4--4--4-------|
G|--4--4--4--4--4--4--4--4--10--10--10--10--4--4--4--4-------|
D|--6--6--6--6--------------10--10--10--10--6--6--6--6-------|
A|--6--6--6--6--------------8---8---8---8---6--6--6--6-------|
E|-----------------------------------------------------------|

chrous

e|----------------------------------------------------------------------|
B|----------------------------------------------------------------------|
G|----------------------------------------------------------------------|
D|--6666666699998888-66x66x66x66-99998888--66666666-99-99-99-99-6666666-|
A|--6666666699998888-66x66x66x66-99998888--66666666-99-99-99-99-6666666-|
E|--4444444477776666-44x44x44x44-77776666--44444444-77-77-77-77-4444444-|

e|------------------------------------|
B|------------------------------------|
G|-44-44-44-44----------44-44-44-44---|
D|-44-44-44-44-66666666-44-44-44-44-6-|
A|-22-22-22-22-66666666-22-22-22-22-6-|
E|-------------44444444-------------4-|

solo
e|-4-6-7---3-5-6----------------44444444/-12--------44444444-3333-2222-|
B|-------6-------5--4-3------------------------------------------------|
G|---------------------------------------------------------------------|
D|---------------------------------------------------------------------|
A|-------------------------1-22----------------1-22--------------------|
E|---------------------------------------------------------------------|

verse

e|--4----4----------4-------------|
B|--4----5----------4-------------|
G|--4----4----10----4-------------|
D|--6---------10----6-------------|
A|--6---------8-----6-------------|
E|--------------------------------|

break

bridge

e|----------------------------   ----------------------|
B|----------------------------   ----------------------|
G|----------------------------   ----------------------|
D|-4444-66666666-9999-77-44---   -66666666---9-3-------| play after 2nd time
A|-4444-66666666-9999-77-44---x2 -66666666---9-3-------|
E|-2222-44444444-7777-55-22---   -44444444---7-5-------|

chrous 2

e|-------------------------------------------------------------------|
B|-------------------------------------------------------------------|
G|-------------------------------------------------------------------|
D|--6666666699998888-66666666-99998888--66666666-99-99-99-99-6666666-|
A|--6666666699998888-66666666-99998888--66666666-99-99-99-99-6666666-|
E|--4444444477776666-44444444-77776666--44444444-77-77-77-77-4444444-|

e|-----------------------------------|
B|-----------------------------------|
G|-----------------------------------|
D|-99-99-99-99--66666666-99-99-99-99-|
A|-99-99-99-99--66666666-99-99-99-99-|
E|-77-77-77-77--44444444-77-77-77-77-|

"owwwww ow ow ow ow ow"

e|--4-------------4-------------|
B|--4-------------4-------------|
G|--4-------------4-------------|
D|--6-------------6-------------| x2
A|--6-------------6-------------|
E|------------------------------|


e|-----------------------------------------------------|
B|-----------------------------------------------------|
G|----------------------------------------44-44-44-44--|
D|--66666666--7777-66666666-7777-66666666-44-44-44-44--|
A|--66666666--7777-66666666-7777-66666666-22-22-22-22--|
E|--44444444--9999-44444444-9999-44444444--------------|

chrous

e|-------------------------------------------------------------------|
B|-------------------------------------------------------------------|
G|-------------------------------------------------------------------|
D|--6666666699998888-66666666-99998888--66666666-99-99-99-99-6666666-|
A|--6666666699998888-66666666-99998888--66666666-99-99-99-99-6666666-|
E|--4444444477776666-44444444-77776666--44444444-77-77-77-77-4444444-|

e|-----------------------------------|
B|-----------------------------------|
G|-----------------------------------|
D|-99-99-99-99--66666666-99-99-99-99-|
A|-99-99-99-99--66666666-99-99-99-99-|
E|-77-77-77-77--44444444-77-77-77-77-|


| /  slide up
| \  slide down
| h  hammer-on
| p  pull-off
| ~  vibrato
| +  harmonic
| x  Mute note
===============================================================================





Comments


Popular Rascals tabs & chords
Bond Girl Chords
How Can I Be Sure Chords
Fear Invicted Into The Perfect Stranger Tabs
Good Lovin' Tabs
How Do I End This? Tabs
Is It Too Late Tabs
Out Of Dreams 1 Tabs
Ratcatcher Tabs
How Can I Be Sure Ukulele
Ill Give You Sympathy Ukulele


Song lyrics



↑ Back to top | Tablatures and chords are parodies/interpretations of the original songs. You may use it for private study, scholarship, research or language learning purposes only
© 2014 AZChords.com Contact us | Privacy policy | DMCA | Add/correct tabs | Request tabs | Top 50 tabs