» » »

Rascals, Fear Invicted Into The Perfect Stranger Tabs (ver.1)

Artists:  A B C D E F G H I J K L M N O P Q R S T U V W X Y Z # 

Fear Invicted Into The Perfect Stranger Tabs (ver.1)

Rascals Tabs
 Rating:
4.3/5 (6 votes)
Fear Invicted Into The Perfect Stranger lessons Tabs too difficult? Try these video lessons and learn fast
                -------------------------------------------------------------------------------
               Fear Invicted Into the Perfect Stranger – The Rascals
-------------------------------------------------------------------------------

Intro (palm muted)

e|-------------------------------------------------------------------|
B|-------------------------------------------------------------------|
G|---------5-5-------------5-5-------------5-5-------------5-5-------| x2
D|-----7-7-----7-7-----7-7-----7-7-----7-7-----7-7-----7-7-----7-7---|
A|-7-7-------------7-7-------------6-6-------------6-6---------------|
E|-------------------------------------------------------------------|

e|-------------------------------------------------------------------|
B|---------3-3-------------3-3-------------3-3-------------3-3-------|
G|-----4-4-----4-4-----4-4-----4-4-----5-5-----5-5-----5-5-----5-5---| x2
D|-5-5-------------5-5-------------6-6-------------6-6---------------|
A|-------------------------------------------------------------------|
E|-------------------------------------------------------------------|

Repeat intro until:

(0:47)

e|----|------------------------------------------------------------------
B|-3--|------------------------------------------------------------------
G|-5--|------5-------5-------5-------5-------5-------5-------5-------5--- 
D|-6--|----7---7---7---7---7---7---7---7---7---7---7---7---7---7---7---7-
A|----|--7-------7-------6-------6-------7-------7-------6-------6-------
E|----|------------------------------------------------------------------

e|------------------------------------------------------|
B|-----3-------3-------3-------3-------3-----3------3---|
G|---4---4---4---4---5---5---5---5---4---4-----4----5---|
D|-5-------5-------6-------6-------5-------5-----5--6---|
A|------------------------------------------------------|
E|------------------------------------------------------|

e|------------------------------------------------------------------
B|------------------------------------------------------------------
G|-----5-------5-------5-------5-------5-------5-------5-------5----
D|---7---7---7---7---7---7---7---7---7---7---7---7---7---7---7---7--
A|-7-------7-------6-------6-------7-------7-------6-------6--------
E|------------------------------------------------------------------

e|------------------------------------------------------------------|
B|-----3-------3-------3-------3-------3-------3-----3-------3------|
G|---4---4---4---4---5---5---5---5---4---4---4-----5---5---5---5----| 
D|-5-------5-------6-------6-------5-------5-----6-------6----------|
A|------------------------------------------------------------------|
E|------------------------------------------------------------------|

e|------------------------------------------------------------------
B|------------------------------------------------------------------
G|-----5-------5-------5-------5-------5-------5-------5-------5----
D|---7---7---7---7---7---7---7---7---7---7---7---7---7---7---7---7--
A|-7-------7-------6-------6-------7-------7-------6-------6--------
E|------------------------------------------------------------------

e|-----------------------------------------------------|
B|-----3-------3-------3-------3-------3-----3------3--|
G|---4---4---4---4---5---5---5---5---4---4-----4----5--| 
D|-5-------5-------6-------6-------5-------5-----5--6--|
A|-----------------------------------------------------|
E|-----------------------------------------------------|

(1:36)

e|-----------------------------------------------------|
B|-----------------------------------------------------|
G|-----------------------------------------------------| x5
D|-7-7--7-7-7--7--7-7-9-10-10-10--9-10-12-12-12-12-12--|
A|-7-7--7-7-7--7--7-7-9-10-10-10--9-10-12-12-12-12-12--|
E|-5-5--5-5-5--5--5-5-7-8--8--8---7-8--10-10-10-10-10--|

(2:12)

e|------------------------------------------------------------------
B|------------------------------------------------------------------
G|-----5-------5-------5-------5-------5-------5-------5-------5----
D|---7---7---7---7---7---7---7---7---7---7---7---7---7---7---7---7--
A|-7-------7-------6-------6-------7-------7-------6-------6--------
E|------------------------------------------------------------------

e|------------------------------------------------------------------|
B|-----3-------3-------3-------3-------3-------3-----3-------3------|
G|---4---4---4---4---5---5---5---5---4---4---4-----5---5---5---5----| 
D|-5-------5-------6-------6-------5-------5-----6-------6----------|
A|------------------------------------------------------------------|
E|------------------------------------------------------------------|

e|------------------------------------------------------------------
B|------------------------------------------------------------------
G|-----5-------5-------5-------5-------5-------5-------5-------5----
D|---7---7---7---7---7---7---7---7---7---7---7---7---7---7---7---7--
A|-7-------7-------6-------6-------7-------7-------6-------6--------
E|------------------------------------------------------------------

e|-----------------------------------------------------|
B|-----3-------3-------3-------3-------3-----3------3--|
G|---4---4---4---4---5---5---5---5---4---4-----4----5--| 
D|-5-------5-------6-------6-------5-------5-----5--6--|
A|-----------------------------------------------------|
E|-----------------------------------------------------|

Solo (2:43)

e|---------------------------------------------------------------------|
B|----------------------------------------------------s10-10-10-9-9s12-|
G|---------------------------------------------------------------------|
D|---------------------------------------------------------------------|
A|---------------------------------------------------------------------|
E|-5----5-4--7--5----5-4--7--3---4---6--4--3-4-3-4-3-------------------|

e|-------------------------------------------------|
B|-10--10-9-9s12-8--8-9--11--9--8-9-8-9-8----------|
G|-------------------------------------------------| (B string part uses
D|-------------------------------------------------|  a lot of vibrato effect)
A|-------------------------------------------------|
E|-------------------------------------------------|

(3:14)

e|------------------------------------------------|
B|------------------------------------------------|
G|------------------------------------------------| x2
D|-7----7-7-7-7-7-7-10----12-12-12-12-12-12-7-----|
A|-7----7-7-7-7-7-7-10----12-12-12-12-12-12-7-----|
E|-5----5-5-5-5-5-5-8-----10-10-10-10-10-10-5-----|

e|---------------------------------------------|
B|---------------------------------------------|
G|---------------------------------------------| x4
D|-7-7-7-7-7-7-7-7-10101010-12-12-12-12--------|
A|-7-7-7-7-7-7-7-7-10101010-12-12-12-12--------|
E|-5-5-5-5-5-5-5-5-8-8-8-8--10-10-10-10--------|

e|--------------------------------------------------5-------------3----|
B|--------------------------------------------------5-------------3----|
G|--------------------------------------------------5-------------4----|
D|-14-14-14-14-14-14-14-14-14-14-14-14-14-14-14-14--7-------------5----|
A|-14-14-14-14-14-14-14-14-14-14-14-14-14-14-14-14--7------------------|
E|-12-12-12-12-12-12-12-12-12-12-12-12-12-12-12-12--5------------------|

I think this is right. Great tune!

| s  slide
===============================================================================
            
Submit corrections

comments powered by Disqus
↑ Back to top | Rascals Tabs for Fear Invicted Into The Perfect Stranger. Lyrics for acoustic guitar and electric guitar. Tablatures and chords are parodies/interpretations of the original songs. You may use it for private study, scholarship, research or language learning purposes only