» » »

Bond Girl Acostic Tabs (ver.1)

Artists:  A B C D E F G H I J K L M N O P Q R S T U V W X Y Z # 

Bond Girl Acostic Tabs (ver.1)

Rascals
Rating:
0/5 (0 votes)

Hard to play? Try these video lessons and learn fast.
                ive been meaning to tab this and when i saw the one that i wrongfully accpted i had to 
and put right what i had done this is the ACOSTIC version
Tuning:standard

verse
e|------------------------------------|
B|------------------------------------|
G|------------------------------------|x6
D|-101010101010-11-8----101010-101010-|
A|-101010101010-11-8----101010-101010-|
E|--8-8-8-8-8-8--9-6----8-8-8--8-8-8--|

chrous
e|----------------8-8-8--8-8-8---------------|
B|----------------8-8-8--8-8-8---------------|
G|----------------8-8-8--8-8-8---------------|
D|-1010-88-55-77-101010-101010--88-55-77-----|
A|-1010-66-33-55-101010-101010--66-33-55-----|
E|--8-8--------------------------------------|

verse
e|------------------------------------|
B|------------------------------------|
G|------------------------------------|
D|-101010101010-11-8----101010-101010-|x6
A|-101010101010-11-8----101010-101010-|
E|--8-8-8-8-8-8--9-6----8-8-8--8-8-8--|

chrous
e|----------------8-8-8--8-8-8------------8-8-8-|
B|----------------8-8-8--8-8-8------------8-8-8-|
G|----------------8-8-8--8-8-8------------8-8-8-|
D|-1010-88-55-77-101010-101010--88-55-77-101010-|
A|-1010-66-33-55-101010-101010--66-33-55-101010-|
E|--8-8-----------------------------------------|

bridge

e|-33333333111111111------------------------|
B|-33333333111111111------------------------|
G|-44444444222222222------------------------|
D|-55555555333333333-55-88-55-88------------|x4
A|-55555555333333333-33-66-33-66------------|
E|------------------------------------------|

e|--------------------------|
B|--------------------------|
G|--------------------------|
D|-101010101010-11-8-10-----| x4 with breaks inbetween
A|-101010101010-11-8-10-----|
E|--8-8-8-8-8-8--9-6--8-----|

chrous
e|---------------------------------------8-8-8--8-8-8------------8-8-8-|
B|---------------------------------------8-8-8--8-8-8------------8-8-8-|
G|---------------------------------------8-8-8--8-8-8------------8-8-8-|
D|-101010-101010-101010--1010--88-55-77-101010-101010--88-55-77-101010-|
A|-101010-101010-101010--1010--66-33-55-101010-101010--66-33-55-101010-|
E|--8-8-8--8-8-8--8-8-8---8-8------------------------------------------|

outro

e|-33333333111111111------------------------|
B|-33333333111111111------------------------|
G|-44444444222222222------------------------|
D|-55555555333333333-55-88-55-88------------|x4
A|-55555555333333333-33-66-33-66------------|
E|------------------------------------------|

e|-33333333111111111--------------8----------|
B|-33333333111111111--------------8----------|
G|-44444444222222222--------------8----------|
D|-55555555333333333-55-88-55-88-10----------|
A|-55555555333333333-33-66-33-66-10----------|
E|-------------------------------------------|

and thats it i hope u like its one of mine thas why ive tabbed the electric and acostic 
hope u enjoyed it
            
Hard to play? Try these video lessons and learn fast. | Correct




comments powered by Disqus
↑ Back to top | Tablatures and chords are parodies/interpretations of the original songs. You may use it for private study, scholarship, research or language learning purposes only