>
 >
What Hurts The Most

What Hurts The Most Bass Tabs

Rascal Flatts - What Hurts The Most chords, tabs, tablatures, lyrics

Guitar lessons | Add/correct | Request | Top 50 tabs Artists:  A B C D E F G H I J K L M N O P Q R S T U V W X Y Z 0-9

What Hurts The Most Bass Tabs – Rascal Flatts

CD, Sheet music, Poster

Do you like What Hurts The Most? Share with your friends now
Bass TabsChordsChords v2Chords v3TabsTabs v2Tabs v3Tabs v4Tabs v5Ukulele
Intro - 0.02 till 0.16

E-----------------------------------------------------------|
A--8----------------6---------------------4~----------------|
D-----------------------------------------------------------| x 2
G-----------------------------------------------------------|

Verse - 0.16 till 0.30

E--------------------------------------------------|-------------|
A--8----------------6---------------------4~-------|------6------|
D--------------------------------------------------|-------------| x 2
G--------------------------------------------------|-------------|

Pre Chorus - 0.30 till 0.44

E-----------------------------------------------------------------------|
A--4~-----------------------6-------------~-----8-----------------6-----|
D-----------------------------------------------------------------------|
G-----------------------------------------------------------------------|

E--------------------------------------|
A--4-4-4-4-4-4-4-4-4-6-6-6-6-6-6-6-6---|
D--------------------------------------|
G--------------------------------------|

Chorus - 0.44 till 1.12

E-----------------------------------------------------------|
A--8----------------6---------------------4~------------4---|
D-----------------------------------------------------------|
G-----------------------------------------------------------|

E--4~----------------------------------------------------------------|
A------------------4---------------------6~--------------------------|
D-----------------------------------------------------------     x 2-|
G--------------------------------------------------------------------|

Intro Riff - 1.12 till 1.20

E-----------------------------------------------------------|
A--8----------------6---------------------4~----------------|
D-----------------------------------------------------------| x 1
G-----------------------------------------------------------|

Verse - 1.20 till 1.34

E--------------------------------------------------|-------------|
A--8----------------6---------------------4~-------|------6------|
D--------------------------------------------------|-------------| x 2
G--------------------------------------------------|-------------|

Pre Chorus - 1.34 till 1.48

E-----------------------------------------------------------------------|
A--4~-----------------------6-------------~-----8-----------------6-----|
D-----------------------------------------------------------------------|
G-----------------------------------------------------------------------|

E--------------------------------------|
A--4-4-4-4-4-4-4-4-4-6-6-6-6-6-6-6-6---|
D--------------------------------------|
G--------------------------------------|

Second Chorus - 1.48 till 2.15

E-----------------------------------------------------------|
A--8----------------6---------------------4~------------4---|
D-----------------------------------------------------------|
G-----------------------------------------------------------|

E--4~----------------------------------------------------------------|
A------------------4---------------------6~--------------------------|
D-----------------------------------------------------------     x 2-|
G--------------------------------------------------------------------|

End of Second Chorus - 2.16 till 2.21

E-----------------------------------------------------------|
A--4----------------6---------------------4--4--4--4--------|
D-----------------------------------------------------------|
G-----------------------------------------------------------|

Solo - 2.22 till 2.35

E-----------------------------------------------------------|
A--8----------------6---------------------4--4--4--4--------|
D-----------------------------------------------------------| x 2
G-----------------------------------------------------------|

Chorus till end - 2.36 till 3.11

E-----------------------------------------------------------|
A--8----------------6---------------------4-4-4-4-4-4-4-4-4-|   Sooo Close!!!!!!
D-----------------------------------------------------------|
G-----------------------------------------------------------|

E--4~---------------------------------------------------------|
A------------------4---------------------6~-------------------|
D-------------------------------------------------------------|
G-------------------------------------------------------------|

E-----------------------------------------------------------|
A--8----------------6---------------------4~----------------|
D-----------------------------------------------------------|
G-----------------------------------------------------------|

E--4~---------------------------------------------------------|
A------------------4---------------------6~-------------------|
D-------------------------------------------------------------|
G-------------------------------------------------------------|

End - 3.12 - end

E-----------------------------------------------------------|
A--8----------------6---------------------4~----------------|
D-----------------------------------------------------------| x 2
G-----------------------------------------------------------|





Comments


Popular Rascal Flatts tabs & chords
I'm Movin' On Chords
It's Not Just Me Chords
Bless The Broken Road 6 Tabs
Changed Tabs
Fast Cars And Freedom 2 Tabs
What Hurts The Most 5 Tabs
Life Is A Highway Ukulele
Pieces 2 Ukulele
Praying For Daylight Ukulele
Some Say Ukulele


Song lyrics



↑ Back to top | Tablatures and chords are parodies/interpretations of the original songs. You may use it for private study, scholarship, research or language learning purposes only
© 2014 AZChords.com Contact us | Privacy policy | DMCA | Add/correct tabs | Request tabs | Top 50 tabs