>
 >
No Reins

No Reins Guitar Tabs

Rascal Flatts - No Reins chords, tabs, tablatures, lyrics

Guitar lessons | Add/correct | Request | Top 50 tabs Artists:  A B C D E F G H I J K L M N O P Q R S T U V W X Y Z 0-9

No Reins Guitar Tabs – Rascal Flatts

CD, Sheet music, Poster

Do you like No Reins? Share with your friends now
ChordsTabsUkulele
Artist : Rascal Flatts
song : No Reins
Album : Stil Feels Good

please leave comments but i'm pretting sure that it's 100% correct

standart tunning

/= slide
p.m= palm mute

intro

lead

** the lead part in the intro can ( its my suggestion ) be played underneath the rytm part
in the chorus 

e-4--/5-4-2-0-2--2/4--4-4-5--5-5-5-5-4-2-0-2--2/4-0-2-0|
B------------------------------------------------------|
G------------------------------------------------------|
A------------------------------------------------------|
E------------------------------------------------------|x2

e----------------------------|
B--/5--4--2--0---------------|
G----------------------------|
A----------------------------|
E----------------------------|

rythm 

this part starts at the same time as the second repetition of the lead part

   B    C#      A
e----------------------------------|
B--4--4-6--6-6---------------------|
G--4--4-6--6-6--7------------------|
A--2--2-4--4-4--7---(let ring)-----|
E---------------5------------------| x2


verse 1

p.m-------------------------|
   B     C#    A
e--------------------------|
B--4-----6-----------------|
G--4-----6-----7-----2-----|
A--2-x4--4-x4--7-----2-----|
E--------------5-x4--0-x4--| x4

pre-chorus

( She said, Oh,  oh, I gotta go and find me )
           p.m--------------|
   C#   B  A     E
e-------------------------|
B-------------------------|
G--6--6-4--7--------------|
D--6--6-4--7-----2--------|
A--4--4-2--5-x4--2--------|
E----------------0-x4-----| x2

chorus

e-----------------------|
B-----------------------|
G-4--4-6--6-6-----------|
D-4--4-6--6-6--7--------|
A-2--2-4--4-4--7--------|
E--------------5-x6-----| x2

e-------------------------------|
B-------------------------------|
G-4--4-6--6-6-------------------|
D-4--4-6--6-6--7------silence---|
A-2--2-4--4-4--7----------------|
E--------------5-x12------------|

e-----------------------------------0-------------------|
B-----------------------------------0-------------------|
G-4--4-6--6-6----------4--4-6--6-6--2-------------------|
D-4--4-6--6-6--7-------4--4-6--6-6--2---( let ring)-----|
A-2--2-4--4-4--7-------2--2-4--4-4--0-------------------|
E--------------5-x6-------------------------------------|     

verse 2

( same as verse 1)

pre-chorus 2

(same as pre-chorus 1)

chorus 2 

( same as chorus 1)

solo

e-----------------------|
B-----------------------|
G-4--4-6--6-6-----------|
D-4--4-6--6-6--7--------|
A-2--2-4--4-4--7--------|
E--------------5-x6-----| x3
        
e---------------------------------|
B---------------------------------|
G-4--4-6--6-6---------------------|
D-4--4-6--6-6--4------------------|
A-2--2-4--4-4--4--(let ring)------|
E--------------2------------------| 

pre-chorus 3

( She said, Oh,  oh, I gotta go and find me )
           p.m------------------------|
   C#   B  A     E
e-------------------------|
B-------------------------|
G--6--6-4--7--------------|
D--6--6-4--7-----2--------|
A--4--4-2--5-x4--2--------|
E----------------0-x4-----| x2

chorus 3

e-----------------------|
B-----------------------|
G-4--4-6--6-6-----------|
D-4--4-6--6-6--7--------|
A-2--2-4--4-4--7--------|
E--------------5-x6-----| till the end


the last rythm note is an A :


e-0-------------------|
B-0-------------------|
G-2-------------------|
D-2---( let ring)-----|
A-0-------------------|
E---------------------|

thanks !





Comments


Popular Rascal Flatts tabs & chords
Bless The Broken Road 10 Chords
Fast Cars And Freedom 1 Chords
Here Comes Goodbye (corrected) Chords
My Wish 1 Chords
When The Sand Runs Out Chords
Why Wait Chords
Cool Thing Tabs
Fallin' Upside Down Tabs
Summer Nights Tabs
Easy Ukulele


Song lyrics



↑ Back to top | Tablatures and chords are parodies/interpretations of the original songs. You may use it for private study, scholarship, research or language learning purposes only
© 2014 AZChords.com Contact us | Privacy policy | DMCA | Add/correct tabs | Request tabs | Top 50 tabs