>
 >
Life Is A Highway 4

Life Is A Highway 4 Bass Tabs

Rascal Flatts - Life Is A Highway 4 chords, tabs, tablatures, lyrics

Guitar lessons | Add/correct | Request | Top 50 tabs Artists:  A B C D E F G H I J K L M N O P Q R S T U V W X Y Z 0-9

Life Is A Highway 4 Bass Tabs – Rascal Flatts

CD, Sheet music, Poster

Do you like Life Is A Highway 4? Share with your friends now
Bass TabsBass Tabs v2Bass Tabs v3Bass Tabs v4ChordsChords v2Chords v3Chords v4TabsTabs v2Tabs v3Tabs v4Ukulele
As a personal preference, I don't play open strings if I can aviod it.  The vibration is 
much and sounds kind of sloppy.  So just
play the fifth fret of the above string :)


Tuning:STANDARD

***INTRO***
[0:00 - 0:14]
No bassline

[0:14-0:23]
G|-------------------------------------------------------------------------|
D|-------------------------------------------------------------------------|
A|--5--3--1--1-----1----------------1-----3--3-----1------------3--3-------|
E|--------------------5--1--1----------5--------------6-6-6--5-------------|

[0:23-0:32]
G|-------------------------------------------------------------------------|
D|-------------------------------------------------------------------------|
A|--5-8-5-3--1--1-----1-------------1-----3--3-----1------------3--3-------|
E|-----------------------5--1--1-------5--------------6-6-6--5-------------|

***VERSE***
[0:33-0:50]
G|-----------------------------------------------------------------------|
D|-----------------------------------------------------------------------|
A|-1-1-1-1-1-1-1-1------------------3-3-3-3-3-3-3-3-3-3-3-3-3-3-3-3------|X2
E|------------------1-1-1-1-1-1-1-1--------------------------------------|

***PRE-CHORUS***
[0:50-1:00]
G|-------------------------------------------------------------------------|
D|-------------------------------------------------------------------------|
A|-5-5-5-5---3-3-3-3---1-1-1-1---------------------------------------------|
E|-------------------------------3-3-3-3-3-3-3-3---------------------------|

***CHORUS***
[1:00-1:09]
G|-------------------------------------------------------------------------|
D|-------------------------------------------------------------------------|
A|--5--3--1--1-----1----------------1-----3--3-----1------------3--3-------|
E|--------------------5--1--1----------5--------------6-6-6--5-------------|

[1:09-1:19]
G|-------------------------------------------------------------------------|
D|-------------------------------------------------------------------------|
A|--5-8-5-3--1--1-----1----------------1-----3--3-----1------------3--3----|
E|-----------------------5--1--1----------5--------------6-6-6--5----------|

***VERSE***
[1:19-1:37]
G|-----------------------------------------------------------------------|
D|-----------------------------------------------------------------------|
A|-1-1-1-1-1-1-1-1---------------------3-3-3-3-3-3-3-3-3-3-3-3-3-3-3-3---|X2
E|-------------------1-1-1-1-1-1-1-1-------------------------------------|

***PRE-CHORUS***
[1:37-1:47]
G|-------------------------------------------------------------------------|
D|-------------------------------------------------------------------------|
A|-5-5-5-5---3-3-3-3---1-1-1-1---------------------------------------------|
E|-------------------------------3-3-3-3-3-3-3-3---------------------------|

***CHORUS***
[1:47--1:56]
G|-------------------------------------------------------------------------|
D|-------------------------------------------------------------------------|
A|--5-----3--1--1-----1----------------1-----3--3-----1------------3--3----|
E|-----------------------5--1--1----------5--------------6-6-6--5----------|

[1:56-2:05]
G|-------------------------------------------------------------------------|
D|-------------------------------------------------------------------------|
A|--5-8-5-3--1--1-----1----------------1-----3--3-----1------------3--3----|
E|-----------------------5--1--1----------5--------------6-6-6--5----------|

[2:06--2:15]
G|-------------------------------------------------------------------------|
D|-------------------------------------------------------------------------|
A|--5-----3--1--1-----1----------------1-----3--3-----1------------3--3----|
E|-----------------------5--1--1----------5--------------6-6-6--5----------|

[2:16-2:24]
G|-------------------------------------------------------------------------|
D|-------------------------------------------------------------------------|
A|--5-8-5-3--1--1-----1----------------1-----3--3-----1------------3--3----|
E|-----------------------5--1--1----------5--------------6-6-6--5----------|

***INTERLUDE***
[2:25-2:33]
G|-------------------------------------------------------------------------|
D|-------------------------------------------------------------------------|
A|------------------1-1-1-1-1-1-1-1--5-5-5-5-5-5-5-5--3-3-3-3-3-3-3-3------|
E|-3-3-3-3-3-3-3-3---------------------------------------------------------|

[2:34-2:45]
G|--------------------------------------------------------------------|
D|--------------------------------------------------------------------|
A|------------------1-1-1-1-1-1-1-1---3---3---3---3-------------------|
E|-3-3-3-3-3-3-3-3------------------------------------5-5-5-5-5-5-5-5-|

***DURING SOLO**
[2:45-3:04]
G|-------------------------------------------------------------------------|
D|-------------------------------------------------------------------------|
A|--5-----3--1--1-----1----------------1-----3--3-----1------------3--3----|
E|-----------------------5--1--1----------5--------------6-6-6--5----------|

G|-------------------------------------------------------------------------|
D|-------------------------------------------------------------------------|
A|--5-8-5-3--1--1-----1----------------1-----3--3-----1------------3--3----|
E|-----------------------5--1--1----------5--------------6-6-6--5----------|

***PRE-CHORUS***
[3:05-3:15]
G|-----------------------------|
D|-----------------------------|
A|-5r-----3r-----1r------------|
E|----------------------3r-----|

***CHORUS***
[3:15-3:24]
No bassline

[3:24-3:33]
G|-------------------------------------------------------------------------|
D|-------------------------------------------------------------------------|
A|--5-8-5-3--1r------1----------------1-----3r-------1------------3r-------|
E|-----------------------5--1r-----------5--------------6-6-6--5-----------|

[3:34-3:43]
G|-------------------------------------------------------------------------|
D|-------------------------------------------------------------------------|
A|--5-----3--1--1-----1----------------1-----3--3-----1------------3--3----|
E|-----------------------5--1--1----------5--------------6-6-6--5----------|

[3:43-3:52]
G|-------------------------------------------------------------------------|
D|-------------------------------------------------------------------------|
A|--5-8-5-3--1--1-----1----------------1-----3--3-----1------------3--3----|
E|-----------------------5--1--1----------5--------------6-6-6--5----------|

[3:53-4:02]
G|-------------------------------------------------------------------------|
D|-------------------------------------------------------------------------|
A|--5-----3--1--1-----1----------------1-----3--3-----1------------3--3----|
E|-----------------------5--1--1----------5--------------6-6-6--5----------|

[4:03-4:12]
G|-------------------------------------------------------------------------|
D|-------------------------------------------------------------------------|
A|--5-8-5-3--1--1-----1----------------1-----3--3-----1------------3--3----|
E|-----------------------5--1--1----------5--------------6-6-6--5----------|

Repeat Chorus until fade.





Comments


Popular Rascal Flatts tabs & chords
Come Wake Me Up 5 Chords
Fast Cars And Freedom (no Capo) Chords
Some Say Chords
Why Wait Chords
Bless The Broken Road 2 Tabs
Bless The Broken Road 3 Tabs
Fast Cars And Freedom 2 Tabs
What Hurts The Most 5 Tabs
Life Is A Highway Ukulele
Mayberry Ukulele


Song lyrics



↑ Back to top | Tablatures and chords are parodies/interpretations of the original songs. You may use it for private study, scholarship, research or language learning purposes only
© 2014 AZChords.com Contact us | Privacy policy | DMCA | Add/correct tabs | Request tabs | Top 50 tabs