» » »

Life Is A Highway Tabs (ver.5)

Artists:  A B C D E F G H I J K L M N O P Q R S T U V W X Y Z # 

Life Is A Highway Tabs (ver.5)

Rascal Flatts
Rating:
4/5 (3 votes)

Hard to play? Try these video lessons and learn fast.
                Pre-intro
E|---------------------------------|---------------------------------|
B|--13----13----13----13---131313--|--13----13----13----13---131313--|
G|--10----10----10----10---101010—-|--10----10----10----10---101010--|
D|---------------------------------|---------------------------------|
A|---------------------------------|---------------------------------|
E|---------------------------------|---------------------------------|

E|---------------------------------|---------------------------------|
B|--13----13----13----13---131313--|--13----13----13----13---131313--|
G|--10----10----10----10---101010—-|--10----10----10----10---101010--|
D|---------------------------------|---------------------------------|
A|---------------------------------|---------------------------------|
E|---------------------------------|---------------------------------|

Intro
e [--------------------------------------------------------]
B [--------------------------------------------------------]
G [--------------------------------------------------------]
D [-7--5--3-3-----3--2----------3--2--5-5-----3--2--5-5----]
A [-5--3--1-1-----1--0--3-3-----1--0--3-3-----1--0--3-3----]
E [---------------------1-1--------------------------------]

e [--------------------------------------------------------]
B [--------------------------------------------------------]
G [--------------------------------------------------------]
D [-7--5--3-3-----3--2----------3--2--5-5-----3--2--5-5----]
A [-5--3--1-1-----1--0--3-3-----1--0--3-3-----1--0--3-3----]
E [---------------------1-1--------------------------------]

Verse (w/distortion) play this twice   
e[-----------------------------------]   
B[-----------------------------------]
G[-----------------------------------]
D[-----------------------------------]
A[-3-3-3-3-3-3-3-3-------------------]
E[-----------------1-1-1-1-1-1-1-1---]
PM....................................

e[-----------------------------------]   
B[-----------------------------------]
G[-----------------------------------]
D[-----------------------------------]
A[-3-3-3-3-3-3-3-3-------------------]
E[-----------------1-1-1-1-1-1-1-1---]
PM....................................

Pre-chorus{play each one loud & you can flang it a little if you want to}
e[----------------------------]   
b[----------------------------]
g[----------------------------]
d[--------5------3------------]
a[-5------3------1------5-----]
e[-3--------------------3-----]


chorus 
e [--------------------------------------------------------]
B [--------------------------------------------------------]
G [--------------------------------------------------------]
D [-7--5--3-3-----3--2----------3--2--5-5-----3--2--5-5----]
A [-5--3--1-1-----1--0--3-3-----1--0--3-3-----1--0--3-3----]
E [---------------------1-1--------------------------------]

e [--------------------------------------------------------]
B [--------------------------------------------------------]
G [--------------------------------------------------------]
D [-7--5--3-3-----3--2----------3--2--5-5-----3--2--5-5----]
A [-5--3--1-1-----1--0--3-3-----1--0--3-3-----1--0--3-3----]
E [---------------------1-1--------------------------------]

Verse (w/distortion) play this twice   
e[-----------------------------------]   
B[-----------------------------------]
G[-----------------------------------]
D[-----------------------------------]
A[-3-3-3-3-3-3-3-3-------------------]
E[-----------------1-1-1-1-1-1-1-1---]
PM....................................

e[-----------------------------------]   
B[-----------------------------------]
G[-----------------------------------]
D[-----------------------------------]
A[-3-3-3-3-3-3-3-3-------------------]
E[-----------------1-1-1-1-1-1-1-1---]
PM....................................

Pre-chorus{play each one loud & you can flang it a little if you want to}
e[----------------------------]   
b[----------------------------]
g[----------------------------]
d[--------5------3------------]
a[-5------3------1------5-----]
e[-3--------------------3-----]


chorus 
e [--------------------------------------------------------]
B [--------------------------------------------------------]
G [--------------------------------------------------------]
D [-7--5--3-3-----3--2----------3--2--5-5-----3--2--5-5----]
A [-5--3--1-1-----1--0--3-3-----1--0--3-3-----1--0--3-3----]
E [---------------------1-1--------------------------------]

e [--------------------------------------------------------]
B [--------------------------------------------------------]
G [--------------------------------------------------------]
D [-7--5--3-3-----3--2----------3--2--5-5-----3--2--5-5----]
A [-5--3--1-1-----1--0--3-3-----1--0--3-3-----1--0--3-3----]
E [---------------------1-1--------------------------------]

Bridge (w/distortion)
e[-----------------------------]
B[-----------------------------]
G[-----------------------------]
D[---------3------7-------5----]
A[-5-------1------5-------3----]
E[-3---------------------------]
PM..............................

e[-----------------------------]
B[-----------------------------]
G[-----------------------------]
D[---------3------7-------5----]
A[-5-------1------5-------3----]
E[-3---------------------------]
PM..............................

Interlude
E|---------------------------------|---------------------------------|
B|--13----13----13----13---131313--|--13----13----13----13---131313--|
G|--10----10----10----10---101010—-|--10----10----10----10---101010--|
D|---------------------------------|---------------------------------|
A|---------------------------------|---------------------------------|
E|---------------------------------|---------------------------------|
p.m..................................................................

E|---------------------------------|---------------------------------|
B|--13----13----13----13---131313--|--13----13----13----13---131313--|
G|--10----10----10----10---101010—-|--10----10----10----10---101010--|
D|---------------------------------|---------------------------------|
A|---------------------------------|---------------------------------|
E|---------------------------------|---------------------------------|
P.m………………………………………………………………………………………

Pre-chorus{play each one loud & you can flang it a little if you want to}
e[----------------------------]   
b[----------------------------]
g[----------------------------]
d[--------5------3------------]
a[-5------3------1------5-----]
e[-3--------------------3-----]
chorus 
e [--------------------------------------------------------]
B [--------------------------------------------------------]
G [--------------------------------------------------------]
D [-7--5--3-3-----3--2----------3--2--5-5-----3--2--5-5----]
A [-5--3--1-1-----1--0--3-3-----1--0--3-3-----1--0--3-3----]
E [---------------------1-1--------------------------------]

e [--------------------------------------------------------]
B [--------------------------------------------------------]
G [--------------------------------------------------------]
D [-7--5--3-3-----3--2----------3--2--5-5-----3--2--5-5----]
A [-5--3--1-1-----1--0--3-3-----1--0--3-3-----1--0--3-3----]
E [---------------------1-1--------------------------------]
e [--------------------------------------------------------]
B [--------------------------------------------------------]
G [--------------------------------------------------------]
D [-7--5--3-3-----3--2----------3--2--5-5-----3--2--5-5----]
A [-5--3--1-1-----1--0--3-3-----1--0--3-3-----1--0--3-3----]
E [---------------------1-1--------------------------------]

e [--------------------------------------------------------]
B [--------------------------------------------------------]
G [--------------------------------------------------------]
D [-7--5--3-3-----3--2----------3--2--5-5-----3--2--5-5----]
A [-5--3--1-1-----1--0--3-3-----1--0--3-3-----1--0--3-3----]
E [---------------------1-1--------------------------------]

End.
            
Hard to play? Try these video lessons and learn fast. | Correct




comments powered by Disqus
↑ Back to top | Tablatures and chords are parodies/interpretations of the original songs. You may use it for private study, scholarship, research or language learning purposes only