>
 >
Life Is A Highway 2

Life Is A Highway 2 Guitar Tabs

Rascal Flatts - Life Is A Highway 2 chords, tabs, tablatures, lyrics

Guitar lessons | Add/correct | Request | Top 50 tabs Artists:  A B C D E F G H I J K L M N O P Q R S T U V W X Y Z 0-9

Life Is A Highway 2 Guitar Tabs – Rascal Flatts

CD, Sheet music, Poster

Do you like Life Is A Highway 2? Share with your friends now
Bass TabsBass Tabs v2Bass Tabs v3Bass Tabs v4ChordsChords v2Chords v3Chords v4TabsTabs v2Tabs v3Tabs v4Ukulele
Tuning: Standard(EADGBe)


INTRO:

Pt.1
Rhythm: Continues in all 3 parts      on 4th time - drums come in
e|---13---13--13---131313----------||---13---13--13---131313-------|
B|---13---13--13---131313----------||---13---13--13---131313-------|
G|---------------------------------||------------------------------|
D|---------------------------------||------------------------------|
A|---------------------------------||------------------------------|
E|---------------------------------||------------------------------|

Pt. 2 (Rhythm continues)
MAIN RIFF: Distortion
e|------------------------------------------------------------|
B|------------------------------------------------------------|
G|-----7--5--3-3-----3-------------3-----5-5----3-------5-5---|
D|-----7--5--3-3-----3--7--3-3-----3--3--5-5----3-77-3--5-5---|
A|-----5--3--1-1-----1--7--3-3-----1--3--3-3----1-77-3--3-3---|
E|----------------------5--1-1--------1-----------55-1--------|

e|------------------------------------------------------------|
B|------------------------------------------------------------|
G|-7-10-7\5--3-3-----3-------------3-----5-5----3------5-5----|
D|-7-10-7\5--3-3-----3--7--3-3-----3--3--5-5----3-77-3-5-5----|
A|-5--8-5\3--1-1-----1--7--3-3-----1--3--3-3----1-77-3-3-3----|
E|----------------------5--1-1--------1-----------55-1--------|

Pt. 3
All other guitars continue
Solo Guitar:(Hold bend)        (Hold Bend)
e|-----------------------------------------------------------------|
B|--------------------------------13b15~-13r---10-13-13/15v~---15\-|
G|-----10-12--12b14~--r12---10v~-----------------------------------|
D|-10h12-----------------------------------------------------------|
A|-----------------------------------------------------------------|
E|-----------------------------------------------------------------|


VERSE
e|----------------------------------------------------------|
B|----------------------------------------------------------|
G|----------------------------------------------------------|
D|-33333333--------------------555555555--------55555555----|
A|-11111111--(0)-33333333--(0)-333333333--(3p0)-33333333----|
E|---------------11111111-----------------------------------|2x

TRANSITION:"We won't hesitate.."
Guitar 1: Clean
e|-5~--------3~--------1~----------------|
B|-5~--------3~--------1~----------------|
G|-7~--------5~--------3~----------------|
D|-7~--------5~--------3~-----55555555---|
A|-5~--------3~--------1~-----55555555---|
E|----------------------------33333333---|
Gutiar 2
e|----------*12*-------6~-----3~------------|
B|-/10-----------------6~-----3~------------|
G|---------------------7~-----4~------------|
D|---------------------8~-----5~------------|
A|---------------------8~-----5~------------|
E|---------------------6~-----3~------------|


CHORUS: Here comes the Main Riff again
e|------------------------------------------------------------|
B|------------------------------------------------------------|
G|----/7--5--3-3-----3-------------3-----5-5----3-------5-5---|
D|----/7--5--3-3-----3--7--3-3-----3--3--5-5----3-77-3--5-5---|
A|----/5--3--1-1-----1--7--3-3-----1--3--3-3----1-77-3--3-3---|
E|----------------------5--1-1--------1-----------55-1--------|

e|------------------------------------------------------------|
B|------------------------------------------------------------|
G|-7-10-7\5--3-3-----3-------------3-----5-5----3------5-5----|
D|-7-10-7\5--3-3-----3--7--3-3-----3--3--5-5----3-77-3-5-5----|
A|-5--8-5\3--1-1-----1--7--3-3-----1--3--3-3----1-77-3-3-3----|
E|----------------------5--1-1--------1-----------55-1--------|

VERSE 2:
Rythm
e|----------------------------------------------------------|
B|----------------------------------------------------------|
G|----------------------------------------------------------|
D|-33333333--------------------555555555--------55555555----|
A|-11111111--(0)-33333333--(0)-333333333--(3p0)-33333333----|
E|---------------11111111-----------------------------------|2x


2nd time Lead guitar
e|------------------------------------------------------------|
B|------------------------------------------------------------|
G|-10v\---10v\-------12b14-r12--10\5~-----10v\--------5h7p5---|
D|------------------------------------------------------------|
A|------------------------------------------------------------|
E|------------------------------------------------------------|


TRANSITION 2:
Guitar 1: Slight Distortion
e|---------------------------------------|
B|---------------------------------------|
G|-7-7-7~---5-5-5~---3-3-3~--------------|
D|-7-7-7~---5-5-5~---3-3-3~---55555555---|
A|-5-5-5~---3-3-3~---1-1-1~---55555555---|
E|----------------------------33333333---|
Gutiar 2
e|---------*12*--------------------------|
B|-/10---------------15------------------|
G|---------------------14bv-r14--12\10---|
D|---------------------------------------|
A|---------------------------------------|
E|---------------------------------------|


CHORUS 2: play 2x
e|------------------------------------------------------------|
B|------------------------------------------------------------|
G|----/7--5--3-3-----3-------------3-----5-5----3-------5-5---|
D|----/7--5--3-3-----3--7--3-3-----3--3--5-5----3-77-3--5-5---|
A|----/5--3--1-1-----1--7--3-3-----1--3--3-3----1-77-3--3-3---|
E|----------------------5--1-1--------1-----------55-1--------|

e|------------------------------------------------------------|
B|------------------------------------------------------------|
G|-7-10-7\5--3-3-----3-------------3-----5-5----3------5-5----|
D|-7-10-7\5--3-3-----3--7--3-3-----3--3--5-5----3-77-3-5-5----|
A|-5--8-5\3--1-1-----1--7--3-3-----1--3--3-3----1-77-3-3-3----|
E|----------------------5--1-1--------1-----------55-1--------|2x

2nd time Rhythm gutiar from intro plays
e|--------13----13----13---131313--|
B|--------13----13----13---131313--|
G|---------------------------------|
D|---------------------------------|
A|---------------------------------|
E|---------------------------------|


BRIDGE: 
e|---------------------------------------------|
B|---------------------------------------------|
G|-33333333-33333333--77777777-55555555--------|
D|-33333333-33333333--77777777-55555555--------|
A|-11111111-11111111--55555555-33333333--------|
E|---------------------------------------------|2x


SOLO: I'd say this is a pretty awesome solo, it's quick at parts,
and I hope this tab is clear enough so you can get it perfect.

e|------------------------------------------------------------------|
B|--13b-13b-13b-13b-13bv~---13p10---10------------------------------|
G|-------------------------------12-----14p12p10v\----7b~r--5/7/5v~-|
D|------------------------------------------------------------------|
A|------------------------------------------------------------------|
E|------------------------------------------------------------------|

e|------------------------------------------------------------------|
B|------------------13-15--18-20b~---20b--20b-20b-------------------|
G|-------10----10/14------------------------------------------------|
D|-/10-12-----------------------------------------------------------|
A|------------------------------------------------------------------|
E|------------------------------------------------------------------|

e|------------------------------------------------------------------|
B|--20br--18p15---1818-15/13--15p13/10--13p10-13--------------------|
G|-------------17-------------------------------12p10-12-12p10v\----|
D|------------------------------------------------------------------|
A|------------------------------------------------------------------|
E|------------------------------------------------------------------|

e|-----13p10--------------------------------------|
B|----------13------------------------------------|
G|----------------14p12p10---10h12p10-------------|
D|-----------------------------------12p10h12~----|
A|------------------------------------------------|
E|------------------------------------------------|


TRANSITION 3
Guitar 1
e|--5~-------3~--------1~-----3~------------|
B|--5~-------3~--------1~-----3~------------|
G|--7~-------5~--------3~-----4~------------|
D|--7~-------5~--------3~-----5~------------|
A|--5~-------3~--------1~-----5~------------|
E|----------------------------3~------------|

e|-----------------------------------|
B|-----------------------------------|
G|------------7vvv~~~~-----5h7p5-----|
D|-----------------------------------|
A|-----------------------------------|
E|-----------------------------------|


LAST CHORUS: 
  "Life is a highway"                    Fill on 4th time:
e|--13----13----13----13---131313--||-13/15---15-15--15/13--131313-|
B|--13----13----13----13---131313--||-13/15---15-15--15/13--131313-|
G|---------------------------------||------------------------------|
D|---------------------------------||------------------------------|
A|---------------------------------||------------------------------|
E|---------------------------------||------------------------------|
 "You're goin' my way"                   on 4th time again:
e|--13----13----13----13---131313--||-13/15---15-15--15/13--13/15--|
B|--13----13----13----13---131313--||-13/15---15-15--15/13--13/15--|
G|---------------------------------||------------------------------|
D|---------------------------------||------------------------------|
A|---------------------------------||------------------------------|
E|---------------------------------||------------------------------|


OUTRO: 
e|-------------------------------------------------------------|
B|-------------------------------------------------------------|
G|----/7--5--3-3-----3-------------3-----5-5----3--------5-5---|
D|----/7--5--3-3-----3--7--3-3-----3--3--5-5----3-77--3--5-5---|
A|----/5--3--1-1-----1--7--3-3-----1--3--3-3----1-77--3--3-3---|
E|----------------------5--1-1--------1-----------55--1--------|

e|-------------------------------------------------------------|
B|-------------------------------------------------------------|
G|-7-10-7\5--3-3-----3-------------3-----5-5----3-------5-5----|
D|-7-10-7\5--3-3-----3--7--3-3-----3--3--5-5----3-77--3-5-5----|
A|-5--8-5\3--1-1-----1--7--3-3-----1--3--3-3----1-77--3-3-3----|
E|----------------------5--1-1--------1-----------55--1--------|

This Riff continues, and both Rhythm and Lead play until fade
e|--13----13----13----13---131313--|
B|--13----13----13----13---131313--|
G|---------------------------------|
D|---------------------------------|
A|---------------------------------|
E|---------------------------------|
This is a fill at 3:58, not very important
but it's there so I tabbed it
e|-----------------------------------|
B|-----------------------------------|
G|--12b14~-10--12b13--r12--10v~\-----|
D|-----------------------------------|
A|-----------------------------------|
E|-----------------------------------|


SOLO:
e|--------------------------------------------------------|
B|-------18--18-20b22~--20b22-18--20-18---18b-15--18------|
G|--17h19--19-----------------------------------17--------|
D|--------------------------------------------------------|
A|--------------------------------------------------------|
E|--------------------------------------------------------|

e|--------------------------------------------------------|
B|--18--18-18---18b-15--18---18--18--20b22--20b-20br------|
G|----17--------------17-------17-------------------------|
D|--------------------------------------------------------|
A|--------------------------------------------------------|
E|--------------------------------------------------------|

                                         Prebend
e|--------------------------18-17-18--17----------------------|
B|-20b-18-20-18-20b22--20b22-------------^22rb20--18-20--18v~-|
G|------------------------------------------------------19----|
D|------------------------------------------------------------|
A|------------------------------------------------------------|
E|------------------------------------------------------------|

e|------------------------------------------------------------|
B|--20b22--20-18--18v~----------------------------------------|
G|--------------19---------12b14-12-10--12b14r12v~------------|
D|------------------------------------------------------------|
A|------------------------------------------------------------|
E|------------------------------------------------------------|
                                                    Then Fade


Song Order:

INTRO (Pts. 1, 2, & 3)
VERSE 1
TRANSITION 1
CHORUS
VERSE 2
TRANSITION 2
CHORUS (2X)
BRIDGE
SOLO
TRANSITION 3
LAST CHORUS
OUTRO

Legend:
   /  = Slide Up
   \  = Slide Down
12p10 = Pull off
10h12 = Hammer On
12b   = Bend
12b14 = Full Bend to note on 14th fret
*12*  = Harmonic
10v   = Vibrato
10~   = Sustain
10v~  = Vibrato and Sustain
  x   = Mute String





Comments


Popular Rascal Flatts tabs & chords
Life Is A Highway 3 Bass Tabs
Bob That Head Chords
I Feel Bad Chords
Mayberry 1 Chords
She Goes All The Way Chords
Summer Nights Chords
Fast Cars And Freedom (tab) Tabs
Feels Like Today Tabs
Love You Out Loud Tabs
Where You Are Tabs


Song lyrics



↑ Back to top | Tablatures and chords are parodies/interpretations of the original songs. You may use it for private study, scholarship, research or language learning purposes only
© 2014 AZChords.com Contact us | Privacy policy | DMCA | Add/correct tabs | Request tabs | Top 50 tabs