» » »

Life Is A Highway Tabs (ver.3)

Artists:  A B C D E F G H I J K L M N O P Q R S T U V W X Y Z # 

Life Is A Highway Tabs (ver.3)

Rascal Flatts
Rating:
3.4/5 (37 votes)

Hard to play? Try these video lessons and learn fast.
                This song is a great song if you like country/rock.

Life is a highway 

Song Structure:
Intro
Verse
Pre-chorus
Chorus
Verse 
Pre-chorus
Chorus
Bridge
Interlude
Pre-chorus
Chorus

This is the only extra to the the song!!
PM=Palm Muting

Intro/chorus  (w/distortion, x2 as each)
e[--------------------------------------------------------]
B[--------------------------------------------------------]
G[--------------------------------------------------------]
D[-7--5--3-3-----3--2----------3--2--5-5-----3--2--5-5----]
A[-5--3--1-1-----1--0--3-3-----1--0--3-3-----1--0--3-3----]
E[---------------------1-1--------------------------------]


Verse (w/distortion) play this twice   and this once (Pre-chorus)
e[-----------------------------------][-------------------]   
B[-----------------------------------][-------------------]
G[-----------------------------------][-------------------]
D[-----------------------------------][-----5---3---------]
A[-3-3-3-3-3-3-3-3-------------------][-5---3---1---5-----]
E[-----------------1-1-1-1-1-1-1-1---][-3-----------3-----]
PM.........................................................


Chorus

Verse
 
Pre-chorus

Chorus

Bridge (w/distortion, x2)
e[--------------------]
B[--------------------]
G[--------------------]
D[------3---7----5----]
A[-5----1---5----3----]
E[-3------------------]
PM.....................

Play the chorus twice after this

Pre-chorus

Theres a brief rest after the pre-chorus.  Then continue playing the chorus another three or four times.

thats all!! At the top i have the song structure..
            
Hard to play? Try these video lessons and learn fast. | Correct




comments powered by Disqus
↑ Back to top | Tablatures and chords are parodies/interpretations of the original songs. You may use it for private study, scholarship, research or language learning purposes only