» » »

Fallin' Upside Down Tabs (ver.1)

Artists:  A B C D E F G H I J K L M N O P Q R S T U V W X Y Z # 

Fallin' Upside Down Tabs (ver.1)

Rascal Flatts
Rating:
0/5 (0 votes)

Hard to play? Try these video lessons and learn fast.
                Rascal Flatts, Fallin' Upside Down
1st, solo

E-----------------------------------------------
B--------------------------------------12-------
G-5/7-7-7-7/9-9-9-9/11-11-11-11/12--14----------
D-----------------------------------------------
A-----------------------------------------------
E-----------------------------------------------

E-15-12----12-----12-----------------------
B-------15-----15--------15----------------
G--------------------14b----14b-12---------
D------------------------------------------
A------------------------------------------
E------------------------------------------
            
Hard to play? Try these video lessons and learn fast. | Correct




comments powered by Disqus
↑ Back to top | Tablatures and chords are parodies/interpretations of the original songs. You may use it for private study, scholarship, research or language learning purposes only